>
 >
Untitled

Untitled Guitar Tabs

Blink - Untitled chords, tabs, tablatures, lyrics

Guitar lessons | Add/correct | Request | Top 50 tabs Artists:  A B C D E F G H I J K L M N O P Q R S T U V W X Y Z 0-9

Untitled Guitar Tabs – Blink

CD, Sheet music, Poster

Do you like Untitled? Share with your friends now
TabsTabs v2
Intro/Verse:
e|-----------------------------------------------------------|
B|-----------------------------------------------------------|
G|-----------------------------------------------------------|
D|-4-4-4-4-4----4-4-4-4-4-4-4-4------------------------------|
A|-2-2-2-2-2----2-2-2-2-2-2-2-2-2-2-2-2-2----4-4-4-4-4-4-4-4-|
E|------------------------------0-0-0-0-0----2-2-2-2-2-2-2-2-|

Chorus:
e|--------------------------------------------------------------------------
B|--------------------------------------------------------------------------
G|--------------------------------------------------------------------------
D|-----------------9-9-9-9-9-9-9-9------------------------------------------
A|-6-6-6-6-6-6-6-6-7-7-7-7-7-7-7-7-9-9-9-9-9-9-9-9-4-4-4-4-4-4-4-4--6-6-6-6-
E|-4-4-4-4-4-4-4-4-----------------7-7-7-7-7-7-7-7-2-2-2-2-2-2-2-2--4-4-4-4-

e|---------------------------------------------------------|
B|---------------------------------------------------------|
G|---------------------------------------------------------|
D|---------9-9-9-9-9-9-9-9-------------------------9-9-9-9-|
A|-6-6-6-6-7-7-7-7-7-7-7-7-9-9-9-9-9-9-9-9-4-4-4-4-7-7-7-7-|
E|-4-4-4-4-----------------7-7-7-7-7-7-7-7-2-2-2-2---------|

Bridge:
e|-----------------------------------------------------------------|
B|-----------------------------------------------------------------|
G|-----------------------------------------------------------------|
D|-4-4-4-4-4-4-4-4---------------------------------9-9-9-9-9-9-8-8-|
A|-2-2-2-2-2-2-2-2-6-6-6-6-6-6-6-6-4-4-4-4-4-4-4-4-7-7-7-7-7-7-6-6-|
E|-----------------4-4-4-4-4-4-4-4-2-2-2-2-2-2-2-2-----------------|

Riff:
e|----------------------------------------------------------------|
B|----------------------------------------------------------------|
G|-4-4-4-4-4-4-4-4-4-4-4-4-4-4-4-4-4-4-4-4-4-4-4-4-4-4-4-4-4-4--9-|
D|-x-x-x-x-x-x-x-x-x-x-x-x-x-x-x-x-x-x-x-x-x-x-x-x-x-x-x-x-x-x--x-|
A|-2-2-2-2-2-2-2-2-2-2-2-2-2-2-2-2-2-2-2-2-2-2-2-2-2-2-2-2-2-2--7-|
E|----------------------------------------------------------------|





Comments


Popular Blink tabs & chords
Degenerate Tabs
Dont Leave Me Tabs
Dumpweed 1 Tabs
Heres Your Letter 1 Tabs
I Miss You 2 Tabs
Stay Together For The Kids 1 Tabs
Stockholme Syndrome Tabs
The Party Song Tabs
Touchdown Boy 1 Tabs
Waggy 1 Tabs


Song lyrics



↑ Back to top | Tablatures and chords are parodies/interpretations of the original songs. You may use it for private study, scholarship, research or language learning purposes only
© 2014 AZChords.com Contact us | Privacy policy | DMCA | Add/correct tabs | Request tabs | Top 50 tabs