>
 >
Story Of A Lonely Guy

Story Of A Lonely Guy Guitar Tabs

Blink - Story Of A Lonely Guy chords, tabs, tablatures, lyrics

Guitar lessons | Add/correct | Request | Top 50 tabs Artists:  A B C D E F G H I J K L M N O P Q R S T U V W X Y Z 0-9

Story Of A Lonely Guy Guitar Tabs – Blink

CD, Sheet music, Poster

Do you like Story Of A Lonely Guy? Share with your friends now
TabsTabs v2
Intro-2 Times (ALL CLEAN)
e-----------------------------------------------------------
B--------10-10-10-12-12-12-12-12-12-12-12-12
G9-9-9----------------------------------------------------
D-----------------------------------------------------------
A-----------------------------------------------------------
E-----------------------------------------------------------

Intro Continued (ALL CLEAN)
e-----------------------------------------------------------
B-12-12-12--------10-10-10-12-12-12-10-10-10
G-------------9-9-9---------------------------------------
D-----------------------------------------------------------
A-----------------------------------------------------------
E------------------------------------------------------------

Intro Continued (ALL CLEAN)
e-----------------
B-10-10-10-10
G-----------------
D-----------------
A-----------------
E-----------------

Verse- 4 Times (ALL DISTORTED)
e------------------------------------------------------------
B------------------------------------------------------------
G------------------------------------------------------------
D-------------------------------------------------------------
A-0-0-0-0-0-0-0-0-2-2-2-2-2-2-2-2-4-4-4-4-4-4-4
E-------------------------------------------------------------
  [.......................P.M..........................................]
Verse Continued (ALL DISTORTED)
e-----------------------
B-----------------------
G-----------------------
D-----------------------
A-4-5-5-5-5-5-5-5-5
E------------------------
   [........P.M...........]

Pre-Chorus- 2 Times (ALL CLEAN)
e------------------------------------------------------------
B------------------------------------------------------------
G-----2--------2---------2---------2--------2--------2---
D--------------------0-0----0-0-0---0--------------------
A-4-4--4-4-4---4----------------------0-0---0-0-0---0
E------------------------------------------------------------

Pre-Chorus Continued (ALL CLEAN)
e-------------------------------------
B-------------------------------------
G------2--------2-------------------
D-2-2---2-2-2---2-----------------
A-------------------------------------
E----------------------PICKSLIDE

Chorus- 4 Times (ALL DISTORTED)
E------------------------------------------------------------
B----------------------4-4-4-4-4-4-4-4------------------
G----------------------2-2-2-2-2-2-2-2------------------
D-2-2-2-2-2-2-2-2---------------------------------------
A-0-0-0-0-0-0-0-0---------------------4-4-4-4-4-4-4
E-------------------------------------------2-2-2-2-2-2-2

Chorus Continued (ALL DISTORTED)
e------------------------
B------------------------
G------------------------
D----7-7-7-7-7-7-7-7
A-4-5-5-5-5-5-5-5-5
E-2---------------------

Now you play the INTRO 2 times, the VERSE 4 times, the PRE-CHORUS 2
times, and the CHORUS 4 times, so it's just basically playing everything
I've tabbed over again. After that you go to the interlude.

Interlude (part A)- 2 times
e-------------------------------------------------------------
B-------------------------------------------------------------
G------2---------2-------2--------2------------------------
D--------------------0-0---0-0-0---0-9-9-9-9-9-9-9-9-
A-4-4----4-4-4--4--------------------7-7-7-7-7-7-7-7-
E-------------------------------------------------------------
  [-----------CLEAN----------------][----DISTORTED]

Interlude (part A) Coninued
e---------------------
B---------------------
G---------------------
D-9-9-9-9-9-9-9-9
A-7-7-7-7-7-7-7-7
E---------------------
  [DISTORTED--]

Interlude (part B)- 1 time (ALL CLEAN)
e------------------------------------------------------
B------------------------------------------------------
G-------2----------2---------2---------2----------2-
D------------------------0-0----0-0-0----0--2-2---
A-4-4-----4-4-4----4--------------------------------
E-------------------------------------------------------
 Interlude (part B)Continued (ALL CLEAN)
e---------------------------------------------------------
B--------------------------------------------------------
G---------2----------2--------2--------2----------2---
D-2-2-2----2--2-2---2-2-2--2-----------------------
A-----------------------------------4-4-----4-4-4----4
E---------------------------------------------------------- 

Interlude (part B) continued (ALL CLEAN)
e------------------------
B------------------------
G-------2----------2---
D-0-0-----0-0-0----0-
A------------------------
E------------------------

Next you play the CHORUS riff 3 and 3/4 times.
Then the Ending

Ending- 1 Time (ALL DISTORTED) 
e------------------------------------------
B------------------------------------------
G------------7-7-----7-7-----7-7-------
D-7-7-7----7-7-----7-7-----7-7-----2-
A-5-5-5----5-5-----5-5-----5-5-----0-
E-------------------------------------------
Hold that last note.





Comments


Popular Blink tabs & chords
All The Small Things Tabs
Anthem Part Two 1 Tabs
Heres Your Letter 1 Tabs
I Miss You 1 Tabs
Man Overboard Tabs
Mothers Day Tabs
Roller Coaster Tabs
Stockholm Syndrome Tabs
Touchdown Boy 1 Tabs
Violence 100% Tabs


Song lyrics



↑ Back to top | Tablatures and chords are parodies/interpretations of the original songs. You may use it for private study, scholarship, research or language learning purposes only
© 2014 AZChords.com Contact us | Privacy policy | DMCA | Add/correct tabs | Request tabs | Top 50 tabs