>
 >
Not Now 1

Not Now 1 Guitar Tabs

Blink - Not Now 1 chords, tabs, tablatures, lyrics

Guitar lessons | Add/correct | Request | Top 50 tabs Artists:  A B C D E F G H I J K L M N O P Q R S T U V W X Y Z 0-9

Not Now 1 Guitar Tabs – Blink

CD, Sheet music, Poster

Do you like Not Now 1? Share with your friends now
TabsTabs v2Tabs v3
Blink 182
Self Titled
Not Now- (on the UK Release) GRR, shoulda been on the North American release!!
Josh Stennett

Standard tuning (EADGBe)
/=slide up
\=slide down
pm= palm mute
x=muted string
<>=natural harmonics
()=ghost note---dont play!
^=accented note
~=hold note
Intro:
e|---------------------------------------------|
B|---------------------------------------------|
G|-11-11-11-11\7--7-7-7--7-9-9/(11)--\7-7/9-11-|
D|-x--x--x--x-\x--x-x-x--x-x-x/(x-)--\x-x/x-x--|
A|-9--9--9--9-\5--5-5-5--5-7-7/(9-)--\5-5/7-9--| x4
E|---------------------------------------------|

PICK SCRAPE!!!!

Intro part 2: 
e|---------------------------------------|
B|---------------------------------------|
G|-4/--7---------------------------------|
D|-4/--7--7--7-7-7-7-5-5-5-5-4-4-4-4-4-4-|
A|-2/--5--7--7-7-7-7-5-5-5-5-5-5-5-5-5-5-| x4
E|--------5--5-5-5-5-3-3-3-3-2-2-2-2-2-2-|

Verse: hit chord once, repeat harmonics part twice
e|---------|	|------<12>~--------------|
B|---------|	|-------------------------|
G|-7-------|	|-<7>~--------------<5>~--|
D|-x--ring-|	|-------------<9>~--------|
A|-5-------|x1	|-------------------------| x2
E|---------|	|-------------------------|

pre-chours:
e|---------------------------------------|
B|---------------------------------------|
G|-7--7-7-7-7-7-7-7-7-9--9-9-9-9-9-9-9-9-|
D|-7--7-7-7-7-7-7-7-7-9--9-9-9-9-9-9-9-9-|  cont...
A|-5--5-5-5-5-5-5-5-5-7--7-7-7-7-7-7-7-7-|  
E|---------------------------------------|
pm    ................   ................

e|---------------------------------------|
B|---------------------------------------|
G|---------------------------------------|
D|-4--4-4-4-4-4-4-4-4-5--5-5-5-5-5-5-5-5-|
A|-5--5-5-5-5-5-5-5-5-5--5-5-5-5-5-5-5-5-| x2
E|-2--2-2-2-2-2-2-2-2-3--3-3-3-3-3-3-3-3-|
pm    ...............    ...............

e|--------------------------------------------------------------|
B|--------------------------------------------------------------|
G|-7-7-7-7-7-7-7-7-7-7-7-7-7-7-7-7-7-7-7-7-7-7-7-7-7-7-7-7--7---|
D|-x-x-x-x-x-x-x-x-x-x-x-x-x-x-x-x-0-0-0-0-0-0-0-0-0-0-0-0--0---|
A|-5-5-5-5-5-5-5-5-4-4-4-4-4-4-4-4-x-x-x-x-x-x-x-x-x-x-x-x--x---| x1
E|---------------------------------7-7-7-7-7-7-7-7-5-5-5-5--3---|
   ^                 ^               ^               ^      ^  
Break: 
e|---------------------------------------|
B|---------------------------------------|
G|-4/--7---------------------------------|
D|-4/--7--7--7-7-7-7-5-5-5-5-4-4-4-4-4-4-|
A|-2/--5--7--7-7-7-7-5-5-5-5-5-5-5-5-5-5-| x2
E|--------5--5-5-5-5-3-3-3-3-2-2-2-2-2-2-|

Verse: hit chord once, repeat harmonics part twice
e|---------|	|------<12>~--------------|
B|---------|	|-------------------------|
G|-7-------|	|-<7>~--------------<5>~--|
D|-x--ring-|	|-------------<9>~--------|
A|-5-------|x1	|-------------------------| x2
E|---------|	|-------------------------|

Chorus:
e|------------------------------------------------------------------|
B|------------------------------------------------------------------|
G|-7-7-7-7-7-7-7-7-7-7-7-7-7-7-7-7-7-7-7-7-7-7-7-7-7-7-7-7-7-7-7-7--|
D|-x-x-x-x-x-x-x-x-x-x-x-x-x-x-x-x-0-0-0-0-0-0-0-0-0-0-0-0-0-0-0-0--|
A|-5-5-5-5-5-5-5-5-4-4-4-4-4-4-4-4-x-x-x-x-x-x-x-x-x-x-x-x-x-x-x-x--| x2
E|---------------------------------7-7-7-7-7-7-7-7-5-5-5-5-3-3-3-3--|
   ^                 ^               ^               ^       ^  

Bridge:
e|----------|
B|----------|
G|-7--------|   then just bass....
D|-x--ring--|
A|-5--------|
E|----------|

e|---------------------------------------------|
B|---------------------------------------------|
G|-11-11-11-11\7--7-7-7--7-9-9/(11)--\7-7/9-11-|
D|-x--x--x--x-\x--x-x-x--x-x-x/(x-)--\x-x/x-x--|
A|-9--9--9--9-\5--5-5-5--5-7-7/(9-)--\5-5/7-9--| x2
E|---------------------------------------------|

Chorus:
e|------------------------------------------------------------------|
B|------------------------------------------------------------------|
G|-7-7-7-7-7-7-7-7-7-7-7-7-7-7-7-7-7-7-7-7-7-7-7-7-7-7-7-7-7-7-7-7--|
D|-x-x-x-x-x-x-x-x-x-x-x-x-x-x-x-x-0-0-0-0-0-0-0-0-0-0-0-0-0-0-0-0--|
A|-5-5-5-5-5-5-5-5-4-4-4-4-4-4-4-4-x-x-x-x-x-x-x-x-x-x-x-x-x-x-x-x--| x4
E|---------------------------------7-7-7-7-7-7-7-7-5-5-5-5-3-3-3-3--|
   ^                 ^               ^               ^       ^  
Outro part: 
e|---------------------------------------|
B|---------------------------------------|
G|-4/--7---------------------------------|
D|-4/--7--7--7-7-7-7-5-5-5-5-4-4-4-4-4-4-|
A|-2/--5--7--7-7-7-7-5-5-5-5-5-5-5-5-5-5-| x4
E|--------5--5-5-5-5-3-3-3-3-2-2-2-2-2-2-|

e|----------------
B|----------------
G|-4/--7----------
D|-4/--7--7-------
A|-2/--5--7-------
E|--------5-------





Comments


Popular Blink tabs & chords
A New Hope Tabs
Aliens Exist 2 Tabs
Anthem Part Two Tabs
Anthem Part Two 1 Tabs
Boring 1 Tabs
Feeing This Tabs
Feeling This 2 Tabs
Sometimes 1 Tabs
Touchdown Boy Tabs
Wendy Clear 1 Tabs


Song lyrics



↑ Back to top | Tablatures and chords are parodies/interpretations of the original songs. You may use it for private study, scholarship, research or language learning purposes only
© 2014 AZChords.com Contact us | Privacy policy | DMCA | Add/correct tabs | Request tabs | Top 50 tabs