» » »

Dammit Tabs (ver.2)

Artists:  A B C D E F G H I J K L M N O P Q R S T U V W X Y Z # 

Dammit Tabs (ver.2)

Blink
Rating:
0/5 (0 votes)

Hard to play? Try these video lessons and learn fast.
                
E||-----------------------------------------------------------||
B||-----------------------------------------------------------|| 
G||-----------------------------------------------------------||  4X
D||--------0-0-2-------0-0-2-------0-0-2-------2-2-0----------||
A||---3-3---------------------0-0-----------------------------||      
E||--------------3-3----------------------1-1-----------------||

E||------------------------------------------||
B||------------------------------------------||
G||--5-XXXXXX--------------------------------||  2X
D||--5-XXXXXX--5-XXXXXX--7-XXXXXX--3-XXXXXX--||
A||--3-XXXXXX--5-XXXXXX--7-XXXXXX--3-XXXXXX--||
E||------------3-XXXXXX--5-XXXXXX--1-XXXXXX--||

E||--------------------------------------||
B||--------------------------------------||
G||--5555555-----------------------------||  2X
D||--5555555--5555555--7777777--3333333--||
A||--3333333--5555555--7777777--3333333--||
E||-----------3333333--5555555--1111111--||

E||-----------------------------------------------------------||
B||-----------------------------------------------------------||
G||-----------------------------------------------------------|| 2X
D||--------0-0-2-------0-0-2-------0-0-2-------2-2-0----------||
A||---3-3---------------------0-0-----------------------------||      
E||--------------3-3----------------------1-1-----------------||

E||------------------------------------------||
B||------------------------------------------||
G||--5-XXXXXX--------------------------------||  2X
D||--5-XXXXXX--5-XXXXXX--7-XXXXXX--3-XXXXXX--||
A||--3-XXXXXX--5-XXXXXX--7-XXXXXX--3-XXXXXX--||
E||------------3-XXXXXX--5-XXXXXX--1-XXXXXX--||

E||--------------------------------------||
B||--------------------------------------||
G||--5555555-----------------------------||  2X
D||--5555555--5555555--7777777--3333333--||
A||--3333333--5555555--7777777--3333333--||
E||-----------3333333--5555555--1111111--||

E||--------------------------------------||
B||--------------------------------------||
G||--5555555-----------------------------||  2X
D||--5555555--5555555--7777777--3333333--||
A||--3333333--5555555--7777777--3333333--||
E||-----------3333333--5555555--1111111--||

E||-----------------------------------------------------------||
B||-----------------------------------------------------------||
G||-----------------------------------------------------------|| 2X
D||--------0-0-2-------0-0-2-------0-0-2-------2-2-0----------||
A||---3-3---------------------0-0-----------------------------||      
E||--------------3-3----------------------1-1-----------------||

E||------------------------------------------||
B||------------------------------------------||
G||--5-XXXXXX--------------------------------||  2X
D||--5-XXXXXX--5-XXXXXX--7-XXXXXX--3-XXXXXX--||
A||--3-XXXXXX--5-XXXXXX--7-XXXXXX--3-XXXXXX--||
E||------------3-XXXXXX--5-XXXXXX--1-XXXXXX--||

E||--------------------------------------||
B||--------------------------------------||
G||--5555555-----------------------------||  2X
D||--5555555--5555555--7777777--3333333--||
A||--3333333--5555555--7777777--3333333--||
E||-----------3333333--5555555--1111111--||

E||--------------------------------------||
B||--------------------------------------||
G||--5555555-----------------------------||  2X
D||--5555555--5555555--7777777--3333333--||
A||--3333333--5555555--7777777--3333333--||
E||-----------3333333--5555555--1111111--||

E||---0---------0----0--------0-------0---0--------0---0-------0------0---||
B||-----1-----3---1----1----3----1--3---1---1----3---1---1---3---1--3---1-||
G||-------0--------------0--------------------0------------0--------------||
D||-----------------------------------------------------------------------||
A||-----------------------------------------------------------------------||
E||-----------------------------------------------------------------------||

E||-----------------------------------------------------------||
B||-----------------------------------------------------------|| 
G||-----------------------------------------------------------||  4X
D||--------0-0-2-------0-0-2-------0-0-2-------2-2-0----------||
A||---3-3---------------------0-0-----------------------------||      
E||--------------3-3----------------------1-1-----------------||
            
Hard to play? Try these video lessons and learn fast. | Correct




comments powered by Disqus
↑ Back to top | Tablatures and chords are parodies/interpretations of the original songs. You may use it for private study, scholarship, research or language learning purposes only