» » »

Blink, Ben Wah Balls Tabs (ver.1)

Artists:  A B C D E F G H I J K L M N O P Q R S T U V W X Y Z # 

Ben Wah Balls Tabs (ver.1)

Blink Tabs
 Rating:
4/5 (4 votes)
Ben Wah Balls lessons Tabs too difficult? Try these video lessons and learn fast
1
                (If u have a pickup selector put it at the second position from the bottom)

Intro
e|-------------------------------------------------------------|
b|-------------------------------------------------------------|
g|-------------------------------------------------------------|
d|--4-4-4--5-5-5--4-4-4--7-7-7--5-5-5-5-5-5-5-5---|
a|--5-5-5--5-5-5--5-5-5--7-7-7--5-5-5-5-5-5-5-5---|
e|-----------3-3-3-----------5-5-5--3-3-3-3-3-3-3-3---|

Riff 1
e|--15-15-15-14-14-14---------------------------14-14-14-15-15-15-----------------------------15-15-15-14--
b|----------------------------15-15-15-15-15-15---------------------------15-15-15-15-15-15----------------------
g|-------------------------------------------------------------------------------------------------------------------------------
d|-------------------------------------------------------------------------------------------------------------------------------
a|-------------------------------------------------------------------------------------------------------------------------------
e|-------------------------------------------------------------------------------------------------------------------------------

-14-14----------------------------14-14-14-15-15-15-14-14-15-14-------|
----------15-15-15-15-15-15---------------------------------------------15---|

Riff 2: X 2
e|-------------------------------------------------------------------------------------|
b|-------------------------------------------------------------------------------------|
g|-777777------------777777-------------777777-----------------------------| 
d|-777777-555555-777777-444-222-777777-444-222-----555555--| 
a|-555555-555555-555555-------------555555-----------------555555--|
e|------------333333-------------------------------------------------- 333333--|
						        Pm…………

Riff 3: X 2
e|-------------------------------------------------------------------------------------|
b|-------------------------------------------------------------------------------------|
g|-------------------------------------------------------------------------------------|
d|----4--7-4---4--5-4---2--5-4-2-0---5---5-4-2-0----------------------------|
a|--5—5-----2--2------0--0-----------3--3---------------------------------------|

VERSE: UPSTROKE 
e|-5--7--5--3--|
b|-7--7--5--3--|
g|-7--8--6--4--|
d|-7--9--7--5--|
a|-5--9--7--5--|
e|----7--5--3--|


STRUM THESE POWER CHORDS 
g|-7-4--------------------| 
d|-7-4-7-5---------------| 
a|-5-2-7-5---------------| 
e|------5-3---------------|

BREAK RIFF
g|-7-6-------7s9-6-7 
d|-0---7-5-4-------- 
a|------------------ 
e|------------------ 

CLEAN ELECTRIC PART 
g|-0-----0----------------2---0----------0------------------- 
d|---4-2---4-2-0----4--------------4-------4----2-----5-4-0-2 
a|----------------5---5-5---5----2---2-2------0---0-0-------- 
e|----------------------------------------------------------- 

CONT.
g|-----------------------------------------------------------| 
d|---5-----5-4-2-0----------------------------------------| 
a|-----------------------------------------------------------| 
e|-3---3-3--------------------------------------------------| 

WHEN I WAS A LITTLE GIRL...    (CLEAN SLOW UPSTROKE) 
THEN PLAY THE INTRO AGAIN AND YOU'RE DONE
            
Submit corrections

comments powered by Disqus
↑ Back to top | Blink Tabs for Ben Wah Balls. Lyrics for acoustic guitar and electric guitar. 1 Tablatures and chords are parodies/interpretations of the original songs. You may use it for private study, scholarship, research or language learning purposes only