>
 >
Sound Of Sulfur 1

Sound Of Sulfur 1 Guitar Tabs

Bled - Sound Of Sulfur 1 chords, tabs, tablatures, lyrics

Guitar lessons | Add/correct | Request | Top 50 tabs Artists:  A B C D E F G H I J K L M N O P Q R S T U V W X Y Z 0-9

Sound Of Sulfur 1 Guitar Tabs – Bled

CD, Sheet music, Poster

Do you like Sound Of Sulfur 1? Share with your friends now
Bass TabsBass Tabs v2TabsTabs v2
#------------------------------------------------------------------------------##

                                 SOUND OF SULFUR
                             As recorded by The Bled
                      (From the 2003 Album PASS THE FLASK)

Words and Music by The Bled
Arranged by The Bled

Gtr I (D G C F A D) - 'dist left git1'
Gtr II (D G C F A D) - 'dist right git2'
Gtr III (D G C F A D) - 'bridgegit'
Gtr IV (D G C F A D) - 'both dist git1'
Gtr V (D G C F A D) - 'both dist git 2'
Gtr VI (D G C F A D) - 'scratch'

 "Waiting for the sun.."
  Dancefight Q=193
  N.C.          E5 N.C.          G5 N.C.
 7/8           4/4
  Gtrs I, II
                   PM  PM|   PM
  H..           Q  E E E E E E   Q  E E E E E E
|-----------||-----------------|----------------|
|-----------||o----------------|----------------|
|-----------||-----------------|----------------|
|-----------||--2----5---------|-5--2-3-2-------|
|-----------||o-2----------3---|-5--------3-2-0-|
|-----------||--0--0---0-0---0-|-3--------------|


  E5 N.C.          G5     F#5
     PM  PM|   PM     PM|    PM|
  Q  E E E E E E   Q  E E Q  E E
|----------------|----------------|
|----------------|----------------|
|----------------|----------------|
|-2----5---------|-5------4-------|
|-2----------3---|-5--5-5-4--4-4--|
|-0--0---0-0---0-|-3--3-3-2--2-2--|


  E5 N.C.          G5 N.C.
     PM  PM|   PM
  Q  E E E E E E   Q  E E E E E E   E E Q  E E E E   +E  E E Q  E Q
|----------------|----------------|----------------|------------------||
|----------------|----------------|----------------|-----------------o||
|----------------|----------------|-5-5-5--5-7-7-4-|-(4)-4-4-8--8-8---||
|-2----5---------|-5--2-3-2-------|-x-x-x--x-x-x-x-|-(x)-x-x-x--x-x---||
|-2----------3---|-5--------3-2-0-|-3-3-3--3-5-5-2-|-(2)-2-2-6--6-6--o||
|-0--0---0-0---0-|-3--------------|----------------|------------------||


   "I am denial."
    E5               N.C.          E5                     A5     C5
       PM--------|                          PM--------|      PM|    PM|
    Q  E E E E E E   E E E E E E E E   +Q   E E E E E E   Q  E E Q  E E
||-----------------|-----------------|------------------|----------------|
||o----------------|-----------------|------------------|----------------|
||-----------------|-4-5-4-5-9-7-5---|------------------|-2------5-------|
||--2--------------|-x-x-x-x-x-x-x-2-|-(2)--------------|-2--2-2-5--5-5--|
||o-2--2-2-2-2-2-2-|-2-3-2-3-7-5-3-2-|-(2)--2-2-2-2-2-2-|-0--0-0-3--3-3--|
||--0--0-0-0-0-0-0-|---------------0-|-(0)--0-0-0-0-0-0-|----------------|


  E5               N.C.                G5              A5
                                                    9/8
     PM--------|
  Q  E E E E E E   E E E E E E E E   E Q  E Q  E E   E Q  E Q  E E E
|----------------|-----------------|---------------|-------------------||
|----------------|-----------------|---------------|------------------o||
|----------------|-4-5-4-5-9-7-9-7-|---------------|-------------------||
|-2--------------|-x-x-x-x-x-x-x-x-|---5--5-5--5-5-|---7--7-7--7-7-7---||
|-2--2-2-2-2-2-2-|-2-3-2-3-7-5-7-5-|---5--5-5--5-5-|---7--7-7--7-7-7--o||
|-0--0-0-0-0-0-0-|-----------------|---3--3-3--3-3-|---5--5-5--5-5-5---||


 Bridge
  Slightly Slower Q=190
  E5
 4/4
  Gtr I
  E E E E E E E E    E  E E E E E E E
|-----------------|-------------------|
|-----------------|-------------------|
|-9-9-9-9---9-9-9-|--9--9-9-9---9-9-9-|
|-x-x-x-x---x-x-x-|--x--x-x-x---x-x-x-|
|-7-7-7-7---7-7-7-|--7--7-7-7---7-7-7-|
|-----------------|-------------------|
|
| Gtr II
| W                 +W
|-----------------|-------------------|
|-----------------|-------------------|
|-----------------|-------------------|
|-2---------------|-(2)---------------|
|-2---------------|-(2)---------------|
|-0---------------|-(0)---------------|


   E   E  E  E E  E  E  E    E   E  E  E E  E  E  E
|-------------------------|-------------------------|
|-------------------------|-------------------------|
|-12--12-12-12---12-12-12-|-12--12-12-12---12-12-12-|
|--x---x--x--x----x--x--x-|--x---x--x--x----x--x--x-|
|-10--10-10-10---10-10-10-|-10--10-10-10---10-10-10-|
|-------------------------|-------------------------|
|
| +W                        +W
|-------------------------|-------------------------|
|-------------------------|-------------------------|
|-------------------------|-------------------------|
|-(2)---------------------|-(2)---------------------|
|-(2)---------------------|-(2)---------------------|
|-(0)---------------------|-(0)---------------------|


  N.C.                            D5              N.C.
                                        2/4      4/4
  Gtr IV                                          Gtr VI
                                                  TP TP TP TP
   E  E  E  E Q   E  E    E  E Q  H      +H       Q  Q  Q  Q
|----------------------|---------------|--------|-------------||
|----------------------|---------------|--------|-------------||
|-16-16-16-16----11-11-|-11-11----7----|-(7)----|-------------||
|--x--x--x--x-----x--x-|--x--x----x----|-(x)----|-------------||
|-14-14-14-14-----9--9-|--9--9----5----|-(5)----|-x\-x\-x\-x--||
|----------------------|---------------|--------|-x\-x\-x\-x--||
|
| Gtr V                                           Gtr VI
|                                                 TP TP TP TP
|  E  E  E  E Q   E  E    E  E Q  H      +H       Q  Q  Q  Q
|----------------------|---------------|--------|-------------||
|----------------------|---------------|--------|-------------||
|-16-16-16-16----11-11-|-11-11----7----|-(7)----|-------------||
|--x--x--x--x-----x--x-|--x--x----7----|-(7)----|-------------||
|-14-14-14-14-----9--9-|--9--9----5----|-(5)----|-xS=xS=xS=x--||
|----------------------|---------------|--------|-xS=xS=xS=x--||


 "As you walk away for.."
  E5
  Gtr IV
                               ~~~
   E  E  E  E  Q    E  E    E  Q.      E  E  E  E
|-15p14-------17---------|------------------------|
|-------15h17------15-17-|------------13-15-13-12-|
|------------------------|-17-16------------------|
|------------------------|------------------------|
|------------------------|------------------------|
|------------------------|------------------------|
|
| Gtr V
|  E  E  E  E  E E  E  E    E  E  E E  E  E  E  E
|------------------------|------------------------|
|------------------------|------------------------|
|--9--9--9--9--9-9--9--9-|--9--9--9-9--9--9--9--9-|
|--9--9--9--9--9-9--9--9-|--9--9--9-9--9--9--9--9-|
|--7--7--7--7--7-7--7--7-|--7--7--7-7--7--7--7--7-|
|------------------------|------------------------|


  C5                       N.C.           E5      C5
                                 ~~~
   E  E  E  E  Q    E  E    E    Q.        E    E  E  E
|-15p14-------17---------|-------------------------------|
|-------15h17------15-17-|----------------13---15-13-12--|
|------------------------|-17---16-----------------------|
|------------------------|-------------------------------|
|------------------------|-------------------------------|
|------------------------|-------------------------------|
|
|                                          PM--|
|                           |---3---|
|  E  E  E  E  E E  E  E    E E     E E E  S S  E  Q
|------------------------|-------------------------------|
|------------------------|-------------------------------|
|--5--5--5--5--5-5--5--5-|-------------------------5-----|
|--5--5--5--5--5-5--5--5-|--4h5p====4-0h2----------5-----|
|--3--3--3--3--3-3--3--3-|-----------------2-2--2--3-----|
|------------------------|-----------------0-0--0--------|


  E5                       D5
   E  E  E  E  Q    E  E    Q    Q    E  E  E  E
|-15p14-------17---------|-----------------------|
|-------15h17------15-17-|-15---15---15-17-15----|
|------------------------|--------------------17-|
|------------------------|-----------------------|
|------------------------|-----------------------|
|------------------------|-----------------------|
|
|  E  E  E  E  E E  E  E    E E  E E  E  E  E  E
|------------------------|-----------------------|
|------------------------|-----------------------|
|--9--9--9--9--9-9--9--9-|--7-7--7-7--7--7--7--7-|
|--9--9--9--9--9-9--9--9-|--7-7--7-7--7--7--7--7-|
|--7--7--7--7--7-7--7--7-|--5-5--5-5--5--5--5--5-|
|------------------------|-----------------------|


  C5
                            ~~~~
   Q    Q    E  E  E  E    +W
|------19---------------|--------------------|
|-17--------17-19-17-15-|-(15)---------------|
|-----------------------|--------------------|
|-----------------------|--------------------|
|-----------------------|--------------------|
|-----------------------|--------------------|
|
|  E E  E E  E  E  E  E     E  E E E E E E E
|-----------------------|--------------------|
|-----------------------|--------------------|
|--5-5--5-5--5--5--5--5-|---5--5-5-5-5-5-5-5-|
|--5-5--5-5--5--5--5--5-|---5--5-5-5-5-5-5-5-|
|--3-3--3-3--3--3--3--3-|---3--3-3-3-3-3-3-3-|
|-----------------------|--------------------|


  E5
                               ~~~
   E  E  E  E  Q    E  E    E  Q.      E  E  E  E
|-15p14-------17---------|------------------------|
|-------15h17------15-17-|------------13-15-13-12-|
|------------------------|-17-16------------------|
|------------------------|------------------------|
|------------------------|------------------------|
|------------------------|------------------------|
|
|  E  E  E  E  E E  E  E    E  E  E E  E  E  E  E
|------------------------|------------------------|
|------------------------|------------------------|
|--9--9--9--9--9-9--9--9-|--9--9--9-9--9--9--9--9-|
|--9--9--9--9--9-9--9--9-|--9--9--9-9--9--9--9--9-|
|--7--7--7--7--7-7--7--7-|--7--7--7-7--7--7--7--7-|
|------------------------|------------------------|


  C5                       N.C.           E5      C5
                                 ~~~
   E  E  E  E  Q    E  E    E    Q.        E    E  E  E
|-15p14-------17---------|-------------------------------|
|-------15h17------15-17-|----------------13---15-13-12--|
|------------------------|-17---16-----------------------|
|------------------------|-------------------------------|
|------------------------|-------------------------------|
|------------------------|-------------------------------|
|
|                                          PM--|
|                           |---3---|
|  E  E  E  E  E E  E  E    E E     E E E  S S  E  Q
|------------------------|-------------------------------|
|------------------------|-------------------------------|
|--5--5--5--5--5-5--5--5-|-------------------------5-----|
|--5--5--5--5--5-5--5--5-|--4h5p====4-0h2----------5-----|
|--3--3--3--3--3-3--3--3-|-----------------2-2--2--3-----|
|------------------------|-----------------0-0--0--------|


  E5                       D5
   E  E  E  E  Q    E  E    Q    Q    E  E  E  E
|-15p14-------17---------|-----------------------|
|-------15h17------15-17-|-15---15---15-17-15----|
|------------------------|--------------------17-|
|------------------------|-----------------------|
|------------------------|-----------------------|
|------------------------|-----------------------|
|
|  E  E  E  E  E E  E  E    E E  E E  E  E  E  E
|------------------------|-----------------------|
|------------------------|-----------------------|
|--9--9--9--9--9-9--9--9-|--7-7--7-7--7--7--7--7-|
|--9--9--9--9--9-9--9--9-|--7-7--7-7--7--7--7--7-|
|--7--7--7--7--7-7--7--7-|--5-5--5-5--5--5--5--5-|
|------------------------|-----------------------|


  N.C.
                        2/4
   Q     H        Q       +E   Q.
|-------19-------------|--------------||
|-17-------------19----|-(19)-20------||
|----------------------|--------------||
|----------------------|--------------||
|----------------------|--------------||
|----------------------|--------------||
|
|  E  E  E  E Q   E  E     E   E  Q
|----------------------|--------------||
|----------------------|--------------||
|-16-16-16-16----11-11-|--11--11------||
|--x--x--x--x-----x--x-|---x---x------||
|-14-14-14-14-----9--9-|---9---9------||
|----------------------|--------------||


 2nd Bridge
  Slower Q=184
  C5                                N.C.
   H       +H        +H        +Q   Q
|-17----|-(17)----|-(17)----|-(17)------|
|-------|---------|---------|-----------|
|-------|---------|---------|-----------|
|-------|---------|---------|-----------|
|-------|---------|---------|-----------|
|-------|---------|---------|-----------|
|
|  H       +H        +H        +Q   Q
|-------|---------|---------|-----------|
|-------|---------|---------|-----------|
|--5----|--(5)----|--(5)----|--(5)--5S==|
|--5----|--(5)----|--(5)----|--(5)------|
|--3----|--(3)----|--(3)----|--(3)------|
|-------|---------|---------|-----------|


  E5                                C/E
 4/4
  PM|   PM  PM|      PM   PM  PM--|
  E E E E E E E E    E  E E E E E E  E
|-----------------|--------------------|
|-----------------|--------------------|
|-----------------|--------------------|
|-----9---9-----9-|-----9---9-------10-|
|-----7---7-----7-|-----7---7--------7-|
|-0-0---0---0-0---|--0----0---0-0-0----|
|
| W                 +W
|-----------------|--------------------|
|-----------------|--------------------|
|-9---------------|-(9)----------------|
|-----------------|--------------------|
|-----------------|--------------------|
|-----------------|--------------------|


  E5
   PM-|   PM  PM|      PM   PM  PM--------|
   E  E E E E E E E    E  E E E S S S S S S E
|-------------------|---------------------------|
|-------------------|---------------------------|
|-------------------|---------------------------|
|-------9---9-----9-|-----9---9-------------9---|
|-------7---7-----7-|-----7---7-------------7---|
|--0--0---0---0-0---|--0----0---0-0-0-0-0-0-----|
|
|                      >
| +W                  +W
|-------------------|---------------------------|
|-------------------|---------------------------|
|-(9)---------------|-(9)-----------------------|
|-------------------|---------------------------|
|-------------------|---------------------------|
|-------------------|---------------------------|


  E5                              C/E
  Gtr IV
  PM|   PM  PM|     PM  PM  PM--|
  E E E E E E E E   E E E E E E E  E
|-----------------|------------------|
|-----------------|------------------|
|-----------------|------------------|
|-----9---9-----9-|---9---9-------10-|
|-----7---7-----7-|---7---7--------7-|
|-0-0---0---0-0---|-0---0---0-0-0----|


  E5
  PM|   PM  PM|     PM  PM  PM--------|
  E E E E E E E E   E E E E S S S S S S E
|-----------------|------------------------||
|-----------------|------------------------||
|-----------------|------------------------||
|-----9---9-----9-|---9---9-------------9--||
|-----7---7-----7-|---7---7-------------7--||
|-0-0---0---0-0---|-0---0---0-0-0-0-0-0----||


 "You set my wings.."
  Em
  Gtr IV
  PM|   PM  PM|     PM  PM  PM--|
  E E E E E E E E   E E E E E E E  E
|-----------------|------------------|
|-----------------|------------------|
|-----------------|------------------|
|-----9---9-----9-|---9---9-------10-|
|-----7---7-----7-|---7---7--------7-|
|-0-0---0---0-0---|-0---0---0-0-0----|
|
| Gtr III
| E E E E E E E E   E E E E E E E  E
|-7-7-7-7-7-7-7-7-|-7-7-7-7-7-7-7--7-|
|-8-8-8-8-8-8-8-8-|-8-8-8-8-8-8-8--8-|
|-9-9-9-9-9-9-9-9-|-9-9-9-9-9-9-9--9-|
|-----------------|------------------|
|-----------------|------------------|
|-----------------|------------------|


  G                         Gsus4       G
   PM|      PM    PM|        PM    PM    PM----------|
   E  E  E  E  E  E  E  E    E  E  E  E  S S  S S  S S  E
|-------------------------|--------------------------------|
|-------------------------|--------------------------------|
|-------------------------|--------------------------------|
|--------9-----9--------9-|-----9-----9-----------------9--|
|--------7-----7--------7-|-----7-----7-----------------7--|
|--0--0-----0-----0--0----|--0-----0-----0-0--0-0--0-0-----|
|
|  E  E  E  E  E  E  E  E    E  E  E  E  E    E    E    E
|--7--7--7--7--7--7--7--7-|--8--8--8--8--7----7----7----7--|
|--8--8--8--8--8--8--8--8-|--8--8--8--8--8----8----8----8--|
|-12-12-12-12-12-12-12-12-|-12-12-12-12-12---12---12---12--|
|-------------------------|--------------------------------|
|-------------------------|--------------------------------|
|-------------------------|--------------------------------|


  G                         Gmaj7
   PM|      PM    PM|        PM    PM    PM---|
   E  E  E  E  E  E  E  E    E  E  E  E  E  E  E  E
|-------------------------|-------------------------|
|-------------------------|-------------------------|
|-------------------------|-------------------------|
|--------9-----9--------9-|-----9-----9----------10-|
|--------7-----7--------7-|-----7-----7-----------7-|
|--0--0-----0-----0--0----|--0-----0-----0--0--0----|
|
|  E  E  E  E  E  E  E  E    E  E  E  E  E  E  E  E
|-15-15-15-15-15-15-15-15-|-14-14-14-14-14-14-14-14-|
|-12-12-12-12-12-12-12-12-|-12-12-12-12-12-12-12-12-|
|-12-12-12-12-12-12-12-12-|-12-12-12-12-12-12-12-12-|
|-------------------------|-------------------------|
|-------------------------|-------------------------|
|-------------------------|-------------------------|


  E5                        Bm/E
   PM|      PM    PM|        PM    PM    PM----------|
   E  E  E  E  E  E  E  E    E  E  E  E  S S  S S  S S  E
|-------------------------|--------------------------------|
|-------------------------|--------------------------------|
|-------------------------|--------------------------------|
|--------9-----9--------9-|-----9-----9-----------------9--|
|--------7-----7--------7-|-----7-----7-----------------7--|
|--0--0-----0-----0--0----|--0-----0-----0-0--0-0--0-0-----|
|
|  E  E  E  E  E  E  E  E    E  E  E  E  E    E    E    E
|-12-12-12-12-12-12-12-12-|-10-10-10-10-10---10---10---10--|
|-12-12-12-12-12-12-12-12-|-12-12-12-12-12---12---12---12--|
|--9--9--9--9--9--9--9--9-|--9--9--9--9--9----9----9----9--|
|-------------------------|--------------------------------|
|-------------------------|--------------------------------|
|-------------------------|--------------------------------|


  G
   PM|      PM    PM|        PM    PM    PM---|
   E  E  E  E  E  E  E  E    E  E  E  E  E  E  E  E
|-------------------------|-------------------------|
|-------------------------|-------------------------|
|-------------------------|-------------------------|
|--------9-----9--------9-|-----9-----9----------10-|
|--------7-----7--------7-|-----7-----7-----------7-|
|--0--0-----0-----0--0----|--0-----0-----0--0--0----|
|
|  E  E  E  E  E  E  E  E    E  E  E  E  E  E  E  E
|--7--7--7--7--7--7--7--7-|--7--7--7--7--7--7--7--7-|
|--8--8--8--8--8--8--8--8-|--8--8--8--8--8--8--8--8-|
|-12-12-12-12-12-12-12-12-|-12-12-12-12-12-12-12-12-|
|-------------------------|-------------------------|
|-------------------------|-------------------------|
|-------------------------|-------------------------|


                            Gsus4 G          Gsus4G    Gsus2
   PM|      PM    PM|        PM    PM    PM----------|
   E  E  E  E  E  E  E  E    E  E  E  E  S S  S S  S S  E
|-------------------------|--------------------------------|
|-------------------------|--------------------------------|
|-------------------------|--------------------------------|
|--------9-----9--------9-|-----9-----9-----------------9--|
|--------7-----7--------7-|-----7-----7-----------------7--|
|--0--0-----0-----0--0----|--0-----0-----0-0--0-0--0-0-----|
|
|  E  E  E  E  E  E  E  E    E  E  E  E  E    E    E    E
|--7--7--7--7--7--7--7--7-|--8--8--7--7--7----8----7----5--|
|--8--8--8--8--8--8--8--8-|--8--8--8--8--8----8----8----8--|
|-12-12-12-12-12-12-12-12-|-12-12-12-12-12---12---12---12--|
|-------------------------|--------------------------------|
|-------------------------|--------------------------------|
|-------------------------|--------------------------------|


  G                         Gmaj7
   PM|      PM    PM|        PM    PM    PM---|
   E  E  E  E  E  E  E  E    E  E  E  E  E  E  E  E
|-------------------------|-------------------------|
|-------------------------|-------------------------|
|-------------------------|-------------------------|
|--------9-----9--------9-|-----9-----9----------10-|
|--------7-----7--------7-|-----7-----7-----------7-|
|--0--0-----0-----0--0----|--0-----0-----0--0--0----|
|
|  E  E  E  E  E  E  E  E    E  E  E  E  E  E  E  E
|-15-15-15-15-15-15-15-15-|-14-14-14-14-14-14-14-14-|
|-12-12-12-12-12-12-12-12-|-12-12-12-12-12-12-12-12-|
|-12-12-12-12-12-12-12-12-|-12-12-12-12-12-12-12-12-|
|-------------------------|-------------------------|
|-------------------------|-------------------------|
|-------------------------|-------------------------|


  C5
  Gtr IV
   PM---------|      PM--------------------|
   S  S  S  S  E Q   E  E  E    S  S  S  S  E H    E
|----------------------------|-----------------------||
|----------------------------|-----------------------||
|----------------------------|-----------------------||
|----------------------------|-----------------------||
|-10-10-10-10-10----10-10-10-|-10-10-10-10-10--------||
|--8--8--8--8--8-----8--8--8-|--8--8--8--8--8--------||
|
| Gtr V
|  PM---------|      PM--------------------|
|  S  S  S  S  E Q   E  E  E    S  S  S  S  E H    E
|----------------------------|-----------------------||
|----------------------------|-----------------------||
|----------------------------|-----------------------||
|----------------------------|-----------------------||
|-10-10-10-10-10----10-10-10-|-10-10-10-10-10--------||
|--8--8--8--8--8-----8--8--8-|--8--8--8--8--8--------||


   Breakdown
    E5
    Gtrs IV, V
    PM--------------------------------
    S S S S E Q.   q    H    E E E E
||--------------------|--------------|
||o-------------------|--------------|
||--------------------|--------------|
||--------------------|--------------|
||o-2-2-2-2-2------2--|--------2-2-2-|
||--0-0-0-0-0------0--|--------0-0-0-|


                              N.C.        E5      Cb5
                                         2/4
 ---------------------------|             PM----|
  S S S S E Q.   q    E E E E E E E E     S S S S Q
|-------------------|------------------||--------------|
|-------------------|-----------------o||--------------|
|-------------------|------------------||---------5----|
|-------------------|---------5p4-0h4--||---------4----|
|-2-2-2-2-2------2--|---2-2-2---------o||-2-2-2-2-3----|
|-0-0-0-0-0------0--|---0-0-0----------||-0-0-0-0------|


    E5                                                             N.C.
   4/4
    PM-----------------------------------------------------------|
    S S S S E Q.   q    H    E E E E   S S S S E Q.   q    E E E E E E E E
||--------------------|--------------|-------------------|------------------||
||o-------------------|--------------|-------------------|-----------------o||
||--------------------|--------------|-------------------|------------------||
||--------------------|--------------|-------------------|---------5p4-0h4--||
||o-2-2-2-2-2------2--|--------2-2-2-|-2-2-2-2-2------2--|---2-2-2---------o||
||--0-0-0-0-0------0--|--------0-0-0-|-0-0-0-0-0------0--|---0-0-0----------||


  E5      Cb5  E5      Db5  E5
 2/4                       1/4
  Gtr IV
  PM----|      PM----|      PM----|
  S S S S Q    S S S S Q    S S S S
|------------|------------|---------||
|------------|------------|---------||
|---------5--|---------7--|---------||
|---------4--|---------6--|---------||
|-2-2-2-2-3--|-2-2-2-2-5--|---------||
|-0-0-0-0----|-0-0-0-0----|-0-0-0-0-||
|
| Gtr V
| PM----|      PM----|      PM----|
| S S S S Q    S S S S Q    S S S S
|------------|------------|---------||
|------------|------------|---------||
|---------5--|---------7--|---------||
|---------4--|---------6--|---------||
|-2-2-2-2-3--|-2-2-2-2-5--|-2-2-2-2-||
|-0-0-0-0----|-0-0-0-0----|-0-0-0-0-||


 Interlude
  N.C.                                  Esus2
 4/4
   q   q    q   q     q    q   q   q     q   q   q   q     q    q   q   q
|-15--15---15--15--|-15---15--15--15--|-14--14--14--14--|-14---14--14--14--|
|-19--19---19--19--|-19---19--19--19--|-17--17--17--17--|-17---17--17--17--|
|------------------|------------------|-----------------|------------------|
|------------------|------------------|-----------------|------------------|
|------------------|------------------|-----------------|------------------|
|------------------|------------------|-----------------|------------------|
|
|      >                                 >
|  Q   H.            +W                  W                +W
|------------------|------------------|-----------------|------------------|
|------------------|------------------|-----------------|------------------|
|--9--(9)----------|-(9)--------------|--8--------------|-(8)--------------|
|--8---x-----------|-(x)--------------|--x--------------|-(x)--------------|
|--7--(7)----------|-(7)--------------|--6--------------|-(6)--------------|
|------------------|------------------|-----------------|------------------|


  C5                Cb5
   q   q   q   q     q    q   q   q
|-15--15--15--15--|-14---14--14--14---|
|-13--13--13--13--|-13---13--13--13---|
|-----------------|-------------------|
|-----------------|-------------------|
|-----------------|-------------------|
|-----------------|-------------------|
|
|  >                 >
|  W                 W
|-----------------|-------------------|
|-----------------|-------------------|
|--7--------------|--9----------------|
|--x--------------|--x----------------|
|--5--------------|--7----------------|
|-----------------|-------------------|
|
| Gtr II
|  W                 H.           Q
|-----------------|-------------------|
|-----------------|-------------------|
|-----------------|-------------------|
|-----------------|-------------------|
|-----------------|--------------12\--|
|-----------------|--------------12\--|


  Bsus4
   ~~~~~~~~~~~~~~~~~~~~~~~~~~~~~~
   W                         +W
|-12----------------------|-(12)---------------||
|-12----------------------|-(12)---------------||
|-------------------------|--------------------||
|-------------------------|--------------------||
|-------------------------|--------------------||
|-------------------------|--------------------||
|
|  W                         +W
|-------------------------|--------------------||
|-------------------------|--------------------||
|-16----------------------|-(16)---------------||
|--x----------------------|--(x)---------------||
|-14----------------------|-(14)---------------||
|-------------------------|--------------------||
|
|  PM------------------------------|
|  E   E   E   E  E E E E     E  E E E E E E E
|-------------------------|------------0-0-0-0-||
|-------------------------|----------0-0-0-0-0-||
|-------------------------|---0--0-0-0-0-0-0-0-||
|-(2)-(2)-(2)-(2)-2-2-2-2-|---2--2-2-2-2-2-2-2-||
|--2---2---2---2--2-2-2-2-|---2--2-2-2-2-2-2-2-||
|--0---0---0---0--0-0-0-0-|---0--0-0-0-0-0-0-0-||


   "I hope they love you.."
    Em
   2/2
     E  E  E  E E  E  E  E    E  E  E  E E  E  E  E
||-------------------------|------------------------|
||o------------------------|------------------------|
||--12-12-12-12---12-12-12-|-12-12-12-12---12-12-12-|
||---x--x--x--x----x--x--x-|--x--x--x--x----x--x--x-|
||o-10-10-10-10---10-10-10-|-10-10-10-10---10-10-10-|
||-------------------------|------------------------|
|
|    E  E  E  E E  E  E  E    E  E  E  E E  E  E  E
||---0--0--0--0----0--0--0-|--0--0--0--0----0--0--0-|
||o--0--0--0--0----0--0--0-|--0--0--0--0----0--0--0-|
||--12-12-12-12---12-12-12-|-12-12-12-12---12-12-12-|
||--14-14-14-14---14-14-14-|-14-14-14-14---14-14-14-|
||o------------------------|------------------------|
||-------------------------|------------------------|


                           Emadd9
   E  E  E  E E  E  E  E    E  E  E  E E  E  E  E
|------------------------|-------------------------|
|------------------------|-------------------------|
|--9--9--9--9----9--9--9-|--9--9--9--9----9--9--9--|
|--x--x--x--x----x--x--x-|--x--x--x--x----x--x--x--|
|--7--7--7--7----7--7--7-|--7--7--7--7----7--7--7--|
|------------------------|-------------------------|
|
|  E  E  E  E E  E  E  E    E  E  E  E E  E  E  E
|-15-15-15-15---15-15-15-|-14-14-14-14---14-14-14--|
|--0--0--0--0----0--0--0-|--0--0--0--0----0--0--0--|
|-12-12-12-12---12-12-12-|-12-12-12-12---12-12-12--|
|-14-14-14-14---14-14-14-|-14-14-14-14---14-14-14--|
|------------------------|-------------------------|
|------------------------|-------------------------|


  D6sus4         A6sus4
 2/2                    1/2
   E  E  E  E Q   E  E    E  E Q   4x
|----------------------|-----------||
|----------------------|----------o||
|-16-16-16-16----11-11-|-11-11-----||
|--x--x--x--x-----x--x-|--x--x-----||
|-14-14-14-14-----9--9-|--9--9----o||
|----------------------|-----------||
|
|  E  E  E  E Q   E  E    E  E Q   4x
|----------------------|-----------||
|-12-12-12-12-----7--7-|--7--7----o||
|-12-12-12-12-----7--7-|--7--7-----||
|-12-12-12-12-----7--7-|--7--7-----||
|----------------------|----------o||
|----------------------|-----------||


    E5
   4/4
     E  E  E  E E  E  E  E    E  E  E  E E  E  E  E
||-------------------------|------------------------|
||o------------------------|------------------------|
||--12-12-12-12---12-12-12-|-12-12-12-12---12-12-12-|
||---x--x--x--x----x--x--x-|--x--x--x--x----x--x--x-|
||o-10-10-10-10---10-10-10-|-10-10-10-10---10-10-10-|
||-------------------------|------------------------|
|
|    E  E  E  E E  E  E  E    E  E  E  E E  E  E  E
||-------------------------|------------------------|
||o------------------------|------------------------|
||---9--9--9--9----9--9--9-|--9--9--9--9----9--9--9-|
||---9--9--9--9----9--9--9-|--9--9--9--9----9--9--9-|
||o--7--7--7--7----7--7--7-|--7--7--7--7----7--7--7-|
||-------------------------|------------------------|


  C5
   E  E  E  E E  E  E  E    E  E  E  E E  E  E  E
|------------------------|-------------------------|
|------------------------|-------------------------|
|--9--9--9--9----9--9--9-|--9--9--9--9----9--9--9--|
|--x--x--x--x----x--x--x-|--x--x--x--x----x--x--x--|
|--7--7--7--7----7--7--7-|--7--7--7--7----7--7--7--|
|------------------------|-------------------------|
|
|  E  E  E  E E  E  E  E    E  E  E  E E  E  E  E
|------------------------|-------------------------|
|------------------------|-------------------------|
|------------------------|-------------------------|
|-10-10-10-10---10-10-10-|-10-10-10-10---10-10-10--|
|-10-10-10-10---10-10-10-|-10-10-10-10---10-10-10--|
|--8--8--8--8----8--8--8-|--8--8--8--8----8--8--8--|


  G5               D5
 3/4
   E  E  E  E Q     E  E  E  E Q
|----------------|-----------------||
|----------------|----------------o||
|-16-16-16-16----|-11-11-11-11-----||
|--x--x--x--x----|--x--x--x--x-----||
|-14-14-14-14----|--9--9--9--9----o||
|----------------|-----------------||
|
|  E  E  E  E Q     E  E  E  E Q
|----------------|-----------------||
|----------------|----------------o||
|-12-12-12-12----|--7--7--7--7-----||
|-12-12-12-12----|--7--7--7--7-----||
|-10-10-10-10----|--5--5--5--5----o||
|----------------|-----------------||


 Outro
  C5
 2/2
  W          +W           +W           +W
|----------|------------|------------|--------|
|----------|------------|------------|--------|
|-5--------|-(5)--------|-(5)--------|-(5)----|
|-x--------|-(x)--------|-(x)--------|-(x)----|
|-3--------|-(3)--------|-(3)--------|-(3)----|
|----------|------------|------------|--------|
|
| W          +W           +W           +W
|----------|------------|------------|--------|
|----------|------------|------------|--------|
|-5--------|-(5)--------|-(5)--------|-(5)----|
|-5--------|-(5)--------|-(5)--------|-(5)----|
|-3--------|-(3)--------|-(3)--------|-(3)----|
|----------|------------|------------|--------|


  E5            N.C.
  Gtrs IV, V
                 <
        PM--|
  Q..   S S E S  Q      +W
|---------------<7>--|-(<7>)----*|
|--------------------|----------*|
|--------------------|----------*|
|-2------------------|----------*|
|-2-----2-2-2--------|----------*|
|-0-----0-0-0--------|----------*|





Comments


Popular Bled tabs & chords
Get Up You Son Of A Bitch, Cause Mickey Loves Ya Bass Tabs
I Never Met Another Gemini Bass Tabs
Ruth Buzzi Better Watch Her Back Bass Tabs
Smoke Breaks 2 Bass Tabs
Sound Of Sulfur Bass Tabs
Anvil Pinata Tabs
Last American Cowboy Intro 1 Tabs
My Assassin Tabs
Porcelain Hearts And Hammers For Teeth Intro 1 Tabs
Ruth Buzzi Better Watch Her Back Tabs


Song lyrics



↑ Back to top | Tablatures and chords are parodies/interpretations of the original songs. You may use it for private study, scholarship, research or language learning purposes only
© 2014 AZChords.com Contact us | Privacy policy | DMCA | Add/correct tabs | Request tabs | Top 50 tabs