» » »

Bled, Sound Of Sulfur Bass tabs (ver.2)

Artists:  A B C D E F G H I J K L M N O P Q R S T U V W X Y Z # 

Sound Of Sulfur Bass tabs (ver.2)

Bled Tabs
 Rating:
4/5 (4 votes)
Sound Of Sulfur lessons Tabs too difficult? Try these video lessons and learn fast
1
                
SOUND OF SULFUR (Bassline)
As recorded by The Bled
(From the 2003 Album PASS THE FLASK)

	

Words and Music by The Bled
Arranged by The Bled

Gtr I (D G C F) - 'Bass'

 "Waiting for the sun.."
  Dancefight Q=193
 7/8           4/4
  Gtr I
  H..           Q  E E E E E E   Q  E E E E E E
|-----------||-----------------|----------------|
|-----------||o------5---------|----2-3-2-------|
|-----------||o------------3---|----------3-2-0-|
|-----------||--0--0---0-0---0-|-3--------------|


  Q  E E E E E E   Q  E E Q  E E
|----------------|----------------|
|------5---------|----------------|
|------------3---|----------------|
|-0--0---0-0---0-|-3--3-3-2--2-2--|


  Q  E E E E E E   Q  E E E E E E   E E Q  E E E E   +E  E E Q  E Q
|----------------|----------------|----------------|------------------||
|------5---------|----2-3-2-------|----------------|-----------------o||
|------------3---|----------3-2-0-|-3-3-3--3-5-5-2-|-(2)-2-2-6--6-6--o||
|-0--0---0-0---0-|-3--------------|----------------|------------------||


   "I am denial."
    Q  E E E E E E   E E E E E E E E   +Q   E E E E E E   Q  E E Q  E E
||-----------------|-----------------|------------------|----------------|
||o----------------|---------2-0-----|------------------|----------------|
||o----------------|-2-3-2-3-----3---|------------------|-0--0-0-3--3-3--|
||--0--0-0-0-0-0-0-|---------------0-|-(0)--0-0-0-0-0-0-|----------------|


                                                    9/8
  Q  E E E E E E   E E E E E E E E   E Q  E Q  E E   E Q  E Q  E E E
|----------------|-----------------|---------------|-------------------||
|----------------|---------2-0-2-0-|---------------|------------------o||
|----------------|-2-3-2-3---------|---------------|------------------o||
|-0--0-0-0-0-0-0-|-----------------|---3--3-3--3-3-|---5--5-5--5-5-5---||


 Bridge
  Slightly Slower Q=190
 4/4
  W          +W           +W           +W
|----------|------------|------------|--------|
|----------|------------|------------|--------|
|----------|------------|------------|--------|
|-0--------|-(0)--------|-(0)--------|-(0)----|


                                2/4      4/4
  E E E E Q  E E   E E Q  H      +H        W
|-4-4-4-4--------|-------------|--------|--------||
|------------4-4-|-4-4----0----|-(0)----|--------||
|----------------|-------------|--------|--------||
|----------------|-------------|--------|-12\----||


 "As you walk away for.."
                                                        |-3-|
  E E E E E E E E   E E E E E E E E   E E E E E E E E   E E E E E S S E Q
|-----------------|-----------------|-----------------|----------------------|
|-----------------|-----------------|-----------------|-4h5p4-0h2------------|
|-7-7-7-7-7-7-7-7-|-7-7-7-7-7-7-7-7-|-3-3-3-3-3-3-3-3-|-----------------3----|
|-----------------|-----------------|-----------------|-----------0-0-0------|


  E E E E E E E E   E E E E E E E E   E E E E E E E E   E E E E E E E E
|-----------------|-----------------|-----------------|-----------------|
|-----------------|-----------------|-----------------|-----------------|
|-7-7-7-7-7-7-7-7-|-5-5-5-5-5-5-5-5-|-3-3-3-3-3-3-3-3-|-3-3-3-3-3-3-3-3-|
|-----------------|-----------------|-----------------|-----------------|


                                                        |-3-|
  E E E E E E E E   E E E E E E E E   E E E E E E E E   E E E E E S S E Q
|-----------------|-----------------|-----------------|----------------------|
|-----------------|-----------------|-----------------|-4h5p4-0h2------------|
|-7-7-7-7-7-7-7-7-|-7-7-7-7-7-7-7-7-|-3-3-3-3-3-3-3-3-|-----------------3----|
|-----------------|-----------------|-----------------|-----------0-0-0------|


                                                      2/4
  E E E E E E E E   E E E E E E E E   E E E E Q  E E   E E Q
|-----------------|-----------------|-4-4-4-4--------|---------||
|-----------------|-----------------|------------4-4-|-4-4-----||
|-7-7-7-7-7-7-7-7-|-5-5-5-5-5-5-5-5-|----------------|---------||
|-----------------|-----------------|----------------|---------||


 2nd Bridge
  Slower Q=184
                                    4/4
  H      +H       +H       +Q   Q    Wx8
|------|--------|--------|---------|--------||
|------|--------|--------|---------|--------||
|-3----|-(3)----|-(3)----|-(3)-----|--------||
|------|--------|--------|---------|--------||


   "You set my wings.."
   4/4
    E E E E E E E E   E E E E E E E E
||------------------|-----------------|
||o-----------------|-----------------|
||o-----------------|-----------------|
||--0-0---0---0-0---|-0---0---0-0-0---|


  E E E E E E E E   E E E E S S S S S S E   3x
|-----------------|-------------------------||
|-----------------|------------------------o||
|-----------------|------------------------o||
|-0-0---0---0-0---|-0---0---0-0-0-0-0-0-----||


  E E E E E E E E   E E E E E E E E   S S S S E Q  E E E   S S S S E H    E
|-----------------|-----------------|--------------------|------------------||
|-----------------|-----------------|--------------------|------------------||
|-----------------|-----------------|--------------------|------------------||
|-0-0---0---0-0---|-0---0---0-0-0---|-8-8-8-8-8----8-8-8-|-8-8-8-8-8--------||


   Breakdown
    S S S S E Q.   q    H    E E E E
||--------------------|--------------|
||o-------------------|--------------|
||o-------------------|--------------|
||--0-0-0-0-0------0--|--------0-0-0-|


                                         2/4
  S S S S E Q.   q    E E E E E E E E     S S S S Q
|-------------------|------------------||---------------|
|-------------------|---------5p4-0h4-o||---------------|
|-------------------|-----------------o||---------3\----|
|-0-0-0-0-0------0--|---0-0-0----------||-0-0-0-0-------|


   4/4
    S S S S E Q.   q    H    E E E E   S S S S E Q.   q    E E E E E E E E
||--------------------|--------------|-------------------|------------------||
||o-------------------|--------------|-------------------|---------5p4-0h4-o||
||o-------------------|--------------|-------------------|-----------------o||
||--0-0-0-0-0------0--|--------0-0-0-|-0-0-0-0-0------0--|---0-0-0----------||


 2/4                       1/4
  S S S S Q    S S S S Q    S S S S
|------------|------------|---------||
|------------|------------|---------||
|---------3--|---------5--|---------||
|-0-0-0-0----|-0-0-0-0----|-0-0-0-0-||


 Interlude
 4/4
  Q  H.        W          W          W
|------------|----------|----------|------|
|------------|----------|----------|------|
|-7----------|----------|----------|------|
|------------|----------|----------|------|


  W          H.       Q     E E E E E E E E   E E E E E E E E
|----------|--------------|-----------------|-----------------||
|----------|--------------|-----------------|-----------------||
|----------|--------------|-----------------|-----------------||
|----------|---------12\--|-0-0-0-0-0-0-0-0-|-0-0-0-0-0-0-0-0-||


   "I hope they love you.."
   2/2
    E E E E E E E E   E E E E E E E E   E E E E E E E E
||------------------|-----------------|-----------------|
||o-----------------|-----------------|-----------------|
||o-7-7-7-7---7-7-7-|-7-7-7-7---7-7-7-|-----------------|
||------------------|-----------------|-8-8-8-8---8-8-8-|


                                        1/2
  E E E E E E E E    E  E  E  E Q  E E   E E Q    4x
|-----------------|--------------------|----------||
|-----------------|--------------------|---------o||
|-----------------|-10-10-10-10----5-5-|-5-5-----o||
|-8-8-8-8---8-8-8-|--------------------|----------||


   4/4
    E E E E E E E E   E E E E E E E E   E E E E E E E E
||------------------|-----------------|-----------------|
||o-----------------|-----------------|-----------------|
||o-7-7-7-7---7-7-7-|-7-7-7-7---7-7-7-|-----------------|
||------------------|-----------------|-8-8-8-8---8-8-8-|


                   3/4
  E E E E E E E E    E  E  E  E Q    E E E E Q
|-----------------|----------------|--------------||
|-----------------|----------------|-------------o||
|-----------------|-10-10-10-10----|-5-5-5-5-----o||
|-8-8-8-8---8-8-8-|----------------|--------------||


 Outro
 2/2
  W          +W           +W           +W
|----------|------------|------------|--------|
|----------|------------|------------|--------|
|-3--------|-(3)--------|-(3)--------|-(3)----|
|----------|------------|------------|--------|


  Q..   S S E S Q    W
|------------------|------*|
|------------------|------*|
|------------------|------*|
|-0-----0-0-0------|------*|



Duration Legend
---------------
W - whole; H - half; Q - quarter; E - 8th; S - 16th; T - 32nd; X - 64th; a - acciaccatura
+ - note tied to previous; . - note dotted; .. - note double dotted
Uncapitalized letters represent notes that are staccato (1/2 duration)
Irregular groupings are notated above the duration line
Duration letters will always appear directly above the note/fret number it represents the
duration for.  Duration letters with no fret number below them represent rests.  Multi-
bar rests are notated in the form Wxn, where n is the number of bars to rest for.  Low
melody durations appear below the staff

Tablature Legend
----------------
 h   - hammer-on
 p   - pull-off
 b   - bend
 pb  - pre-bend
 r   - bend release (if no number after the r, then release immediately)
 /\  - slide into or out of (from/to "nowhere")
 s   - legato slide
 S   - shift slide
 - natural harmonic
[n]  - artificial harmonic
n(n) - tapped harmonic
 ~   - vibrato
 tr  - trill
 T   - tap
 TP  - trem. picking
 PM  - palm muting
\n/  - tremolo bar dip; n = amount to dip
 \n  - tremolo bar down
 n/  - tremolo bar up
/n\  - tremolo bar inverted dip
 =   - hold bend; also acts as connecting device for hammers/pulls
 <> - volume swell (louder/softer)
 x   - on rhythm slash represents muted slash
 o   - on rhythm slash represents single note slash

Misc Legend
-----------
 |  - bar
||  - double bar
||o - repeat start
o|| - repeat end
*|  - double bar (ending)
 :  - bar (freetime)
 $  - Segno
 &  - Coda
Tempo markers -  = BPM(8/16=s8/s16), where s8 = swing 8ths, s16 = swing 16ths
            
Submit corrections

comments powered by Disqus
↑ Back to top | Bled Bass for Sound Of Sulfur. Lyrics for acoustic guitar and electric guitar. 1 Tablatures and chords are parodies/interpretations of the original songs. You may use it for private study, scholarship, research or language learning purposes only