» » »

Bled, Sound Of Sulfur Bass tabs (ver.1)

Artists:  A B C D E F G H I J K L M N O P Q R S T U V W X Y Z # 

Sound Of Sulfur Bass tabs (ver.1)

Bled Tabs
 Rating:
4/5 (4 votes)
Sound Of Sulfur lessons Tabs too difficult? Try these video lessons and learn fast
1
                
Tuning - DGCF

"Waiting for the sun..."
F|-----------------------------------------------------|
C|-----3---------2-3-2------------3--------------------|
G|---------5-----------3-2-0----------5----------------| 
D|-0-0---0---0-0--------------0-0---0----3-3-3-2-2-2---|


F|-----------------------------------------------------|
C|-----3---------2-3-2---------------------------------|
G|---------5-----------3-2-0----3-3-3--5--2-2-2--6-6-6-| 
D|-0-0---0---0-0---------------------------------------|


F|-----------------------------------------------------|
C|-----3---------2-3-2------------3--------------------|
G|---------5-----------3-2-0----------5----------------| 
D|-0-0---0---0-0--------------0-0---0----3-3-3-2-2-2---|


F|-----------------------------------------------------|
C|-----3---------2-3-2---------------------------------|
G|---------5-----------3-2-0----3-3-3--5--2-2-2--6-6-6-| 
D|-0-0---0---0-0---------------------------------------|



"You are the one..."
F|-----------------------------------------------------|
C|-------------------------2---------------------------|
G|-----------------2-3-2-3---3-2-----------------------| 
D|-0--0-0-0-0-0-0--------------------------------------|



F|-----------------------------------------------------|
C|-----------------------------------------------------|
G|-----------------0--0-0--3--3-3----------------------| 
D|-0--0-0-0-0-0-0--------------------------------------|


F|---------------------------------------------------------|
C|-------------------------2-0-2-0-------------------------|
G|-----------------2-3-2-3---------------------------------| 
D|-0--0-0-0-0-0-0-------------------3-3-3-3-3--5-5-5-5-5---|


F|-----------------------------------------------------|
C|-------------------------2---------------------------|
G|-----------------2-3-2-3---3-2-----------------------| 
D|-0--0-0-0-0-0-0--------------------------------------|



F|-----------------------------------------------------|
C|-----------------------------------------------------|
G|-----------------0--0-0--3--3-3----------------------| 
D|-0--0-0-0-0-0-0--------------------------------------|


F|---------------------------------------------------------|
C|-------------------------2-0-2-0-------------------------|
G|-----------------2-3-2-3---------------------------------| 
D|-0--0-0-0-0-0-0-------------------3-3-3-3-3--5-5-5-5-5---|




"The Funeral Needs A Star"
F|----------------------------------4-4-4-4----------------|
C|-------------------------------------------4-4-4-4-------|
G|---------------------------------------------------0-----| 
D|---------------------------------------------------------|


"As You Walk Away..."
F|-----------------------------------------------------|
C|-------------------------------------4h5p4-0h4-------|
G|-7777777777777777--3333333333333333------------------| 
D|-----------------------------------------------------|


F|-----------------------------------------------------|
C|-----------------------------------------------------|
G|-7-7-7-7-7-7-7-7--5-5-5-5-5-5-5-5--3-3-3-3-3-3-3-3---| 
D|-----------------------------------------------------|


F|-----------------------------------------------------|
C|-------------------------------------4h5p4-0h4-------|
G|-7777777777777777--3333333333333333------------------| 
D|-----------------------------------------------------|


F|-----------------------------------4-4-4-4-----------|
C|-------------------------------------------4-4-4-4---|
G|-7-7-7-7-7-7-7-7--5-5-5-5-5-5-5-5------------------3-| 
D|-----------------------------------------------------|


You can work out the timing on this part. Its confusing
"You Set My Wings Ablaze..."
F|-----------------------------------------------------|
C|-----------------------------------------------------|
G|-----------------------------------------------------| 
D|-0-0--0--0--0-0--0--0--0-0--0--0--0-0-0-0-0-0--------|


F|-----------------------------------------------------|
C|-----------------------------------------------------|
G|-----------------------------------------------------| 
D|--8-8-8-8---8--8--8---8-8-8-8------------------------|


"You Will Run...."
F|-----------------------------------------------------|
C|--------------------------------------------5p4-0h4--|
G|-----------------------------------------------------| 
D|--0-0-0-0---0---0-0-0---0-0-0-0--0---0-0-0-----------|


F|-----------------------------------------------------|
C|--------------------------------------------5p4-0h4--|
G|-----------------------------------------------------| 
D|--0-0-0-0---0---0-0-0---0-0-0-0--0---0-0-0-----------|


F|------------|
C|------------|
G|---------3--| 
D|--0-0-0-----|


F|-----------------------------------------------------|
C|--------------------------------------------5p4-0h4--|
G|-----------------------------------------------------| 
D|--0-0-0-0---0---0-0-0---0-0-0-0--0---0-0-0-----------|


F|-----------------------------------------------------|
C|--------------------------------------------5p4-0h4--|
G|-----------------------------------------------------| 
D|--0-0-0-0---0---0-0-0---0-0-0-0--0---0-0-0-----------|


F|-----------------------------------------------------|
C|-----------------------------------------------------|
G|---------3---------5---------7-----------------------| 
D|--0-0-0-----0-0-0-----0-0-0--------------------------|


Pre-Outro
F|-----------------------------------------------------|
C|-----------------------------------------------------|
G|-----------------------------------------------------| 
D|------------------------------------/0-0-0-0-0-0-0-0-|


Outro (Repeat til end

"I Hope They Love You Like I Did..."
F|-------------------------------------------------------|
C|-------------------------------------------------------|
G|-7-7-7-7--7-7-7-7-7-7-7--7-7-7-------------------------| 
D|--------------------------------8-8-8-8--8-8-8-8-8-8-8-|



F|-----------------------------------------------------|
C|-----------------------------------------------------|
G|--------10-10-10-10--5-5-5-5-------------------------| 
D|-8-8-8-----------------------------------------------|




F|---------------|
C|---------------|
G|---------------| 
D|--0---0-0-0----|


Thanks.
Please rate.

And any mistakes just leave a comment and i'll fix it when i can.
=)
            
Submit corrections

comments powered by Disqus
↑ Back to top | Bled Bass for Sound Of Sulfur. Lyrics for acoustic guitar and electric guitar. 1 Tablatures and chords are parodies/interpretations of the original songs. You may use it for private study, scholarship, research or language learning purposes only