» » »

Bled, Ruth Buzzi Better Watch Her Back Bass tabs (ver.2)

Artists:  A B C D E F G H I J K L M N O P Q R S T U V W X Y Z # 

Ruth Buzzi Better Watch Her Back Bass tabs (ver.2)

Bled Tabs
 Rating:
4/5 (4 votes)
Ruth Buzzi Better Watch Her Back lessons Tabs too difficult? Try these video lessons and learn fast
1
                
RUTH BUZZI BETTER WATCH HER BACK (Bassline)
As recorded by The Bled
(From the 2003 Album PASS THE FLASK)

	

Words and Music by The Bled
Arranged by The Bled

Gtr I (D G C F) - 'Bass'

 "Somewhere between.."
  Dancefight Q=169
 4/4
  Gtr I
  E E E E E Q.     E E E E E Q.     E E E E E Q.     E E E E E E E E
|----------------|----------------|----------------|-----------------|
|----------------|----------------|----------------|-----------------|
|-----------1----|-----------1----|-----------1----|-----------------|
|-0-1-0-x-x------|-0-1-0-x-x------|-0-1-0-x-x------|-0-1-0-1-3-1-0-1-|


  E E E E E Q.     E E E E E Q.       S S E S S E H      E E E E S S E S S E
|----------------|----------------||-------------------|----------------------||
|----------------|----------------||o------------------|---------------------o||
|-----------1----|-----------1----||o------------------|---------------------o||
|-0-1-0-x-x------|-0-1-0-x-x------||--0-0-0-0-0-0------|---0-0-0-0-0-0-0-0-0--||


  S S E S S E +H       +E  E E E S S E S S E
|--------------------|-----------------------|
|--------------------|-----------------------|
|--------------------|-----------------------|
|-0-0-0-0-0-0-(0)----|-(0)-0-0-0-0-0-0-0-0-0-|


  S S E S S E +H       +E  E S S E e E E E
|--------------------|-----------------------||
|--------------------|-----------------------||
|--------------------|-----------------------||
|-0-0-0-0-0-0-(0)----|-(0)-0-0-0-0-0-0-0-0---||


 "The sun betrays.."
  E E E E E Q.     E E E E E Q.     E E E E E Q.     E E E E E E E E
|----------------|----------------|----------------|-----------------|
|----------------|----------------|----------------|-----------------|
|-----------1----|-----------1----|-----------1----|-----------------|
|-0-1-0-x-x------|-0-1-0-x-x------|-0-1-0-x-x------|-0-1-0-1-3-1-0-1-|


                                   2/4
  E E E E E Q.     E E E E E Q.     E Q.
|----------------|----------------|--------|
|----------------|----------------|--------|
|-----------1----|-----------1----|---1----|
|-0-1-0-x-x------|-0-1-0-x-x------|-0------|


 4/4
  E E E E E E E E   E E E E E E E S S   E E E E E E E E   H.       Q
|-----------------|-------------------|-----------------|---------------||
|-----------------|-------------------|-----------------|---------------||
|-1-1-1-1-1-1-1-1-|-1-1-1-1-1-1-1-1-1-|-0-0-0-0-0-0-0-0-|---------------||
|-----------------|-------------------|-----------------|-0-------12\---||


 "Tangled in a silver.."
 3/4
  E E E E E E   E E E E E E   E E E E E E   E E E E E E
|-------------|-------------|-------------|-------------|
|-------------|-------------|-------------|-------------|
|-3-3-3-3-x-3-|-2-2-2-2-x-2-|-5-5-5-5-5-5-|-2-2-2-2-2-2-|
|-------------|-------------|-------------|-------------|


  H.        +H.         H.        +H.
|---------|-----------|---------|--------|
|---------|-----------|---------|--------|
|---------|-----------|---------|--------|
|-8-------|-(8)\------|-5-------|-(5)----|


  E E E E E E   E E E E E E   E E E E E E   E E E E E E
|-------------|-------------|-------------|-------------|
|-------------|-------------|-------------|-------------|
|-3-3-3-3-x-3-|-2-2-2-2-x-2-|-5-5-5-5-5-5-|-2-2-2-2-2-2-|
|-------------|-------------|-------------|-------------|


              4/4
  E E Q  E E   E +E   E E E E E E
|------------|--------------------|
|------------|--------------------|
|-----3----5-|-5-(5)\-------------|
|-0-0----0---|--------0-0---0-0---|


 3/4
  E E E E E E   E E E E E E   E E E E E E   E E E E E E
|-------------|-------------|-------------|-------------|
|-------------|-------------|-------------|-------------|
|-3-3-3-3-x-3-|-2-2-2-2-x-2-|-5-5-5-5-5-5-|-2-2-2-2-2-2-|
|-------------|-------------|-------------|-------------|


  H.        +H.         H.        +H.
|---------|-----------|---------|--------|
|---------|-----------|---------|--------|
|---------|-----------|---------|--------|
|-8-------|-(8)\------|-5-------|-(5)----|


  E E E E E E   E E E E E E   E E E E E E   E E E E E E
|-------------|-------------|-------------|-------------||
|-------------|-------------|-------------|-------------||
|-------------|-------------|-------------|-------------||
|-0-0-0-0-0-0-|-0-0-0-0-0-0-|-0-0-0-0-0-0-|-0-0-0-0-0-0-||


   Interlude
   4/4
    S S E E E E E E E   E E E E E E E E
||--------------------|-----------------|
||o-------------------|-----------------|
||o-------------------|-----------------|
||--0-0-0-0-0-0-0-0-0-|-0-0-0-0-0-0-0-0-|


                      1.
  S S E E E E E E E   E E E E E E E E
|-------------------|--------------------||
|-------------------|-------------------o||
|-------------------|-------------------o||
|-0-0-0-0-0-0-0-0-0-|-0-0-0-0-0-0-0-0----||


  2.
  S S E E E E E E E   S S E S S E S S E S S E
|-------------------|-------------------------|
|-------------------|-------------------------|
|-------------------|-------------------------|
|-0-0-0-0-0-0-0-0-0-|-0-0-0-0-0-0-0-0-0-0-0-0-|


    S S E E E E E E E   E E E E E E E E
||--------------------|-----------------|
||o-------------------|-----------------|
||o-------------------|-----------------|
||--0-0-0-0-0-0-0-0-0-|-0-0-0-0-0-0-0-0-|


  1.,2.,3.
  S S E E E E E E E   E E E E E E E E   4x
|-------------------|-------------------||
|-------------------|------------------o||
|-------------------|------------------o||
|-0-0-0-0-0-0-0-0-0-|-0-0-0-0-0-0-0-0---||


  4.
  S S E E E E E E E   S S E H.
|-------------------|-------------||
|-------------------|-------------||
|-------------------|-------------||
|-0-0-0-0-0-0-0-0-0-|-0-0-0-------||


   "You're not alone.."
     E E E E S S E Q    +E  E E E  E  E  E  E
||--------------------|-----------------------|
||o-------------------|-----------------------|
||o-/7-7-7-7----------|-----7-7-7-10-10-10-10-|
||-----------0-0-0-0--|-(0)-------------------|


  E E E E S S E Q    +E  E E E E E E E   3x
|------------------|---------------------||
|------------------|--------------------o||
|-9-9-9-9----------|-----9-9-9-9-6-6-6--o||
|---------0-0-0-0--|-(0)-----------------||


   E E E E S S E Q    +E  E E E  E  E  E  E   E E E E E Q.     E E E E E E Q
|-------------------|-----------------------|----------------|----------------||
|-------------------|-----------------------|----------------|----------------||
|-/7-7-7-7----------|-----7-7-7-10-10-10-10-|-9-9-9-9-9------|---6-6---6-6----||
|----------0-0-0-0--|-(0)-------------------|----------------|----------------||


 Bridge
  Q  H.        +W           +W           +W
|------------|------------|------------|--------|
|------------|------------|------------|--------|
|----6-------|-(6)--------|-(6)--------|-(6)----|
|------------|------------|------------|--------|


  +W           +W           E E E E  H      H    H
|------------|------------|---------------|-----------||
|------------|------------|---------------|-----------||
|-(6)--------|-(6)--------|---------------|-----------||
|------------|------------|-0-0---0-12s===|=7s===0----||


   Breakdown
    E E E E E Q.     E E E E E Q.     E E E E E Q.
||-----------------|----------------|----------------|
||o----------------|----------------|----------------|
||o----------------|----------------|----------------|
||--0-0---0-0------|---0-0-0-0------|-0-0---0-0------|


  E E E E E Q.     E E E E E Q.     E E E E E E E E
|----------------|----------------|-----------------|
|----------------|----------------|-2---------------|
|----------------|----------------|---3-2-0-3-2-----|
|---0-0-0-0------|-0-0---0-0------|-------------3-2-|


  E E E E E Q.     E E E E E Q.     E E E E E E E E   E E E E E E E E
|----------------|----------------|-----------------|------------------||
|----------------|----------------|-----------------|-----------------o||
|----------------|----------------|-3-3-3-3-3-3-3-3-|-3-3-3-3-2-2-2-2-o||
|-0-0---0-0------|---0-0-0-0------|-----------------|------------------||


 "I've seen the dead.."
  E E E E E E Q    E E E E E E Q    E E E E E E Q    E E E E E E Q
|----------------|----------------|----------------|----------------|
|----------------|----------------|----------------|----------------|
|----------------|----------------|----------------|----------------|
|-0-0---0---0----|---0-0-0---0----|-0-0---0---0----|---0-0-0---0----|


  E E E E E E Q    E E E E E E Q    E E E E E E E E   E E E E E E E E
|----------------|----------------|-----------------|-----------------|
|----------------|----------------|-----------------|-----------------|
|----------------|----------------|-3-3-3-3-3-3-3-3-|-3-3-3-3-2-2-2-2-|
|-0-0---0---0----|---0-0-0---0----|-----------------|-----------------|


 2/4
  H      +H       H      H
|------|--------|------|-------||
|------|--------|------|-------||
|-5----|-(5)----|-6----|-------||
|------|--------|------|-7\----||


 "Tangled in a silver.."
 3/4
  E E E E E E   E E E E E E   E E E E E E   E E E E E E
|-------------|-------------|-------------|-------------|
|-------------|-------------|-------------|-------------|
|-3-3-3-3-x-3-|-2-2-2-2-x-2-|-5-5-5-5-5-5-|-2-2-2-2-2-2-|
|-------------|-------------|-------------|-------------|


  H.        +H.         H.        +H.
|---------|-----------|---------|--------|
|---------|-----------|---------|--------|
|---------|-----------|---------|--------|
|-8-------|-(8)\------|-5-------|-(5)----|


  E E E E E E   E E E E E E   E E E E E E   E E E E E E
|-------------|-------------|-------------|-------------|
|-------------|-------------|-------------|-------------|
|-3-3-3-3-x-3-|-2-2-2-2-x-2-|-5-5-5-5-5-5-|-2-2-2-2-2-2-|
|-------------|-------------|-------------|-------------|


                     4/4
  H.        H    q    H    E E E E
|---------|---------|--------------|
|---------|---------|--------------|
|---------|---------|--------------|
|---------|------0--|------0-0-0---|


 3/4
  E E E E E E   E E E E E E   E E E E E E   E E E E E E
|-------------|-------------|-------------|-------------||
|-------------|-------------|-------------|-------------||
|-3-3-3-3-x-3-|-2-2-2-2-x-2-|-5-5-5-5-5-5-|-2-2-2-2-2-2-||
|-------------|-------------|-------------|-------------||


 Outro
 6/4
  ~~~~~~~~~~~~~~~~~~~~~~~~~~~~~~~~~~~~~~~~~~~~~~~~~~~
  W.              W.              W.              W.
|---------------|---------------|---------------|-------|
|---------------|---------------|---------------|-------|
|-9-------------|-7-------------|-9-------------|-5-----|
|---------------|---------------|---------------|-------|


  >
  ~~~~~~~~~~~~~~~~~~~~~~~~~~~~~~~~~~~~~~~~~~~~~~~~~~~~~~
  W.              +W.              +W.              +W.
|---------------|----------------|----------------|--------*|
|---------------|----------------|----------------|--------*|
|-4-------------|-(4)------------|-(4)------------|-(4)----*|
|---------------|----------------|----------------|--------*|



Duration Legend
---------------
W - whole; H - half; Q - quarter; E - 8th; S - 16th; T - 32nd; X - 64th; a - acciaccatura
+ - note tied to previous; . - note dotted; .. - note double dotted
Uncapitalized letters represent notes that are staccato (1/2 duration)
Irregular groupings are notated above the duration line
Duration letters will always appear directly above the note/fret number it represents the
duration for.  Duration letters with no fret number below them represent rests.  Multi-
bar rests are notated in the form Wxn, where n is the number of bars to rest for.  Low
melody durations appear below the staff

Tablature Legend
----------------
 h   - hammer-on
 p   - pull-off
 b   - bend
 pb  - pre-bend
 r   - bend release (if no number after the r, then release immediately)
 /\  - slide into or out of (from/to "nowhere")
 s   - legato slide
 S   - shift slide
 - natural harmonic
[n]  - artificial harmonic
n(n) - tapped harmonic
 ~   - vibrato
 tr  - trill
 T   - tap
 TP  - trem. picking
 PM  - palm muting
\n/  - tremolo bar dip; n = amount to dip
 \n  - tremolo bar down
 n/  - tremolo bar up
/n\  - tremolo bar inverted dip
 =   - hold bend; also acts as connecting device for hammers/pulls
 <> - volume swell (louder/softer)
 x   - on rhythm slash represents muted slash
 o   - on rhythm slash represents single note slash

Misc Legend
-----------
 |  - bar
||  - double bar
||o - repeat start
o|| - repeat end
*|  - double bar (ending)
 :  - bar (freetime)
 $  - Segno
 &  - Coda
Tempo markers -  = BPM(8/16=s8/s16), where s8 = swing 8ths, s16 = swing 16ths
            
Submit corrections

comments powered by Disqus
↑ Back to top | Bled Bass for Ruth Buzzi Better Watch Her Back. Lyrics for acoustic guitar and electric guitar. 1 Tablatures and chords are parodies/interpretations of the original songs. You may use it for private study, scholarship, research or language learning purposes only