>
 >
Ruth Buzzi Better Watch Her Back

Ruth Buzzi Better Watch Her Back Guitar Tabs

Bled - Ruth Buzzi Better Watch Her Back chords, tabs, tablatures, lyrics

Guitar lessons | Add/correct | Request | Top 50 tabs Artists:  A B C D E F G H I J K L M N O P Q R S T U V W X Y Z 0-9

Ruth Buzzi Better Watch Her Back Guitar Tabs – Bled

CD, Sheet music, Poster

Do you like Ruth Buzzi Better Watch Her Back? Share with your friends now
Bass TabsBass Tabs v2Tabs
#------------------------------------------------------------------------------##

                        RUTH BUZZI BETTER WATCH HER BACK
                             As recorded by The Bled
                      (From the 2003 Album PASS THE FLASK)

Words and Music by The Bled
Arranged by The Bled

Gtr I (D G C F A D) - 'Untitled'
Gtr II (D G C F A D) - 'Untitled'
Gtr III (D G C F A D) - 'Untitled'
Gtr IV (D G C F A D) - 'Untitled'

 "Somewhere between.."
  Dancefight Q=169
  E5F5E5    Bbb5   E5F5E5    Bbb5   E5F5E5    Bbb5   E5F5E5F5G5F5E5F5
 4/4
  Gtr I
  E E E E E Q.     E E E E E Q.     E E E E E Q.     E E E E E E E E
|----------------|----------------|----------------|-----------------|
|----------------|----------------|----------------|-----------------|
|-----------9----|-----------9----|-----------9----|-----------------|
|-----------x----|-----------x----|-----------x----|-----------------|
|-2-3-2-x-x-7----|-2-3-2-x-x-7----|-2-3-2-x-x-7----|-2-3-2-3-5-3-2-3-|
|-0-1-0-x-x------|-0-1-0-x-x------|-0-1-0-x-x------|-0-1-0-1-3-1-0-1-|
|
| Gtr II
| E E E E E Q.     E E E E E Q.     E E E E E Q.     E E E E E E E E
|----------------|----------------|----------------|-----------------|
|----------------|----------------|----------------|-----------------|
|-----------3----|-----------3----|-----------3----|-----------------|
|-----------2----|-----------2----|-----------2----|-----------------|
|-2-3-2-x-x-1----|-2-3-2-x-x-1----|-2-3-2-x-x-1----|-2-3-2-3-5-3-2-3-|
|-0-1-0-x-x------|-0-1-0-x-x------|-0-1-0-x-x------|-0-1-0-1-3-1-0-1-|


  E5F5E5    Bbb5   E5F5E5    Bbb5     E5
                                      PM--------|          PM--------------|
  E E E E E Q.     E E E E E Q.       S S E S S E H      E E E E S S E S S E
|----------------|----------------||-------------------|----------------------||
|----------------|----------------||o------------------|---------------------o||
|-----------9----|-----------9----||-------------------|----------------------||
|-----------x----|-----------x----||-------------------|----------------------||
|-2-3-2-x-x-7----|-2-3-2-x-x-7----||o-2-2-2-2-2-2------|---2-2-2-2-2-2-2-2-2-o||
|-0-1-0-x-x------|-0-1-0-x-x------||--0-0-0-0-0-0------|---0-0-0-0-0-0-0-0-0--||
|
|                                     PM--------|          PM--------------|
| E E E E E Q.     E E E E E Q.       S S E S S E H      E E E E S S E S S E
|----------------|----------------||-------------------|----------------------||
|----------------|----------------||o------------------|---------------------o||
|-----------3----|-----------3----||-------------------|----------------------||
|-----------2----|-----------2----||-------------------|----------------------||
|-2-3-2-x-x-1----|-2-3-2-x-x-1----||o-2-2-2-2-2-2------|---2-2-2-2-2-2-2-2-2-o||
|-0-1-0-x-x------|-0-1-0-x-x------||--0-0-0-0-0-0------|---0-0-0-0-0-0-0-0-0--||


  E5
  Gtrs I, II
  PM--------|              PM-----------------
  S S E S S E +H       +E  E E E S S E S S E
|--------------------|-----------------------|
|--------------------|-----------------------|
|--------------------|-----------------------|
|--------------------|-----------------------|
|-2-2-2-2-2-2-(2)----|-(2)-2-2-2-2-2-2-2-2-2-|
|-0-0-0-0-0-0-(0)----|-(0)-0-0-0-0-0-0-0-0-0-|


 -----------|              PM------------|
  S S E S S E +H       +E  E S S E e E E E
|--------------------|-----------------------||
|--------------------|-----------------------||
|--------------------|-----------------------||
|--------------------|-----------------------||
|-2-2-2-2-2-2-(2)----|-(2)-2-2-2-2-2-2-2-2---||
|-0-0-0-0-0-0-(0)----|-(0)-0-0-0-0-0-0-0-0---||


 "The sun betrays.."
  E5F5E5    Bbb5   E5F5E5    Bbb5   E5F5E5    Bbb5   E5F5E5F5G5F5E5F5
  Gtr I
  E E E E E Q.     E E E E E Q.     E E E E E Q.     E E E E E E E E
|----------------|----------------|----------------|-----------------|
|----------------|----------------|----------------|-----------------|
|-----------9----|-----------9----|-----------9----|-----------------|
|-----------x----|-----------x----|-----------x----|-----------------|
|-2-3-2-x-x-7----|-2-3-2-x-x-7----|-2-3-2-x-x-7----|-2-3-2-3-5-3-2-3-|
|-0-1-0-x-x------|-0-1-0-x-x------|-0-1-0-x-x------|-0-1-0-1-3-1-0-1-|
|
| Gtr II
| E E E E E Q.     E E E E E Q.     E E E E E Q.     E E E E E E E E
|----------------|----------------|----------------|-----------------|
|----------------|----------------|----------------|-----------------|
|-----------3----|-----------3----|-----------3----|-----------------|
|-----------2----|-----------2----|-----------2----|-----------------|
|-2-3-2-x-x-1----|-2-3-2-x-x-1----|-2-3-2-x-x-1----|-2-3-2-3-5-3-2-3-|
|-0-1-0-x-x------|-0-1-0-x-x------|-0-1-0-x-x------|-0-1-0-1-3-1-0-1-|


  E5F5E5    Bbb5   E5F5E5    Bbb5    N.Bbb5
                                    2/4
                                     PM
  E E E E E Q.     E E E E E  Q.     E  Q.
|----------------|-----------------|---------|
|----------------|-----------------|---13----|
|-----------9----|-----------10----|----x----|
|-----------x----|------------x----|---10----|
|-2-3-2-x-x-7----|-2-3-2-x-x--8----|---------|
|-0-1-0-x-x------|-0-1-0-x-x-------|-0-------|
|
|                                    PM
| E E E E E Q.     E E E E E  Q.     E  Q.
|----------------|-----------------|---------|
|----------------|-----------------|---------|
|-----------3----|------------3----|----3----|
|-----------2----|------------2----|----2----|
|-2-3-2-x-x-1----|-2-3-2-x-x--1----|----1----|
|-0-1-0-x-x------|-0-1-0-x-x-------|-0-------|


  Bb5
 4/4
  PM-----------------------------------
  E E E E E E E E   E E E E E E E S S
|-----------------|-------------------|
|-----------------|-------------------|
|-----------------|-------------------|
|-3-3-3-3-3-3-3-3-|-3-3-3-3-3-3-3-3-3-|
|-1-1-1-1-1-1-1-1-|-1-1-1-1-1-1-1-1-1-|
|-----------------|-------------------|
|
| PM-----------------------------------
| E E E E E E E E   E E E E E E E S S
|-----------------|-------------------|
|-----------------|-------------------|
|-----------------|-------------------|
|-3-3-3-3-3-3-3-3-|-3-3-3-3-3-3-3-3-3-|
|-1-1-1-1-1-1-1-1-|-1-1-1-1-1-1-1-1-1-|
|-----------------|-------------------|


  A5                E5
                                       Gtr IV
                     \0.25_____|
 ---------------|                      TP
  E E E E E E E E    Q.       +E  +Q   Q
|-----------------|-------------------------||
|-----------------|-------------------------||
|-----------------|-------------------------||
|-2-2-2-2-2-2-2-2-|--------------------x\---||
|-0-0-0-0-0-0-0-0-|--2--------(2)------x\---||
|-----------------|--0--------(0)-(0)--x\---||
|
|---------------|
| E E E E E E E E    W
|-----------------|-------------------------||
|-----------------|-------------------------||
|-----------------|-------------------------||
|-2-2-2-2-2-2-2-2-|-<4>---------------------||
|-0-0-0-0-0-0-0-0-|-<4>---------------------||
|-----------------|-------------------------||


 "Tangled in a silver.."
  N.C.
 3/4
  Gtr I
  E E E E E E   E  E  E  E E E    E  E  E  E  E  E    E  E  E  E  E  E
|-------------|----------------|-------------------|-------------------|
|-------------|----------------|-------------------|-------------------|
|-5-5-5-5---5-|-4--4--4--4---4-|--7--7--7--7--7--7-|--4--4--4--4--4--4-|
|-x-x-x-x-x-x-|-x--x--x--x-x-x-|--x--x--x--x--x--x-|--x--x--x--x--x--x-|
|-3-3-3-3-x-3-|-2--2--2--2-x-2-|--5--5--5--5--5--5-|--2--2--2--2--2--2-|
|-------------|----------------|-------------------|-------------------|
|
| Gtr II
| E E E E Q     E  E  E  E E E    E  E  E  E  E  E    E  E  E  E  E  E
|-------------|----------------|-------------------|-------------------|
|-------------|----------------|-------------------|-------------------|
|-9-9-9-9-----|-9-12-12-11---7-|-12-12-12-12-12-12-|-11-11-11-11-11-11-|
|-x-x-x-x-----|-x--x--x--x---x-|--x--x--x--x--x--x-|--x--x--x--x--x--x-|
|-7-7-7-7-----|-7-10-10--9---5-|-10-10-10-10-10-10-|--9--9--9--9--9--9-|
|-------------|----------------|-------------------|-------------------|


  N.C.
   E  E E E E E     E  E E E E E   E  E E E E E    E  E E E E E
|---------------|----------------|--------------|---------------|
|---------------|----------------|--------------|---------------|
|---------------|---4--4-4-------|--------------|--7--7-7-------|
|---------2-2-2-|----------2-2-2-|--------5-5-5-|---------5-5-5-|
|--0--0-0-------|----------------|-3--3-3-------|---------------|
|---------------|----------------|--------------|---------------|
|
|  H.              +H.             H.             +H.
|---------------|----------------|--------------|---------------|
|---------------|----------------|--------------|---------------|
|---------------|----------------|--------------|---------------|
|-10------------|-(10)-----------|-7------------|-(7)-----------|
|--x------------|--(x)-----------|-x------------|-(x)-----------|
|--8------------|--(8)-----------|-8------------|-(8)-----------|


  N.C.
  E E E E E E    E  E  E  E E E    E E  E E E E    E E  E E  E E
|-------------|-----------------|---------------|----------------|
|-------------|-----------------|---------------|----------------|
|-5-5-5-5---5-|--4--4--4--4---4-|--7-7--7-7-7-7-|--4-4--4-4--4-4-|
|-x-x-x-x-x-x-|--x--x--x--x-x-x-|--x-x--x-x-x-x-|--x-x--x-x--x-x-|
|-3-3-3-3-x-3-|--2--2--2--2-x-2-|--5-5--5-5-5-5-|--2-2--2-2--2-2-|
|-------------|-----------------|---------------|----------------|
|
| E E E E Q      E  E  E  E E E    Q    Q   Q      Q    Q    Q
|-------------|-----------------|---------------|----------------|
|-------------|-----------------|---------------|----------------|
|-9-9-9-9-----|-12-12-11-11---7-|-12---11---9---|-11---12---11---|
|-x-x-x-x-----|--x--x--x--x---x-|--x----x---x---|--x----x----x---|
|-7-7-7-7-----|-10-10--9--9---5-|-10----9---7---|--9---10----9---|
|-------------|-----------------|---------------|----------------|


  E5  C5 E5D5           E5
              4/4
  PM|    PM             PM|   PM
  E E Q  E E   +E  +E   E E E E E E
|------------|----------------------|
|------------|----------------------|
|-----5----7-|-(7)-(7)\-------------|
|-----x----x-|-(x)-(x)--------------|
|-2-2-3--2-5-|-(5)-(5)\-2-2---2-2---|
|-0-0----0---|----------0-0---0-0---|
|
| PM|    PM             PM|   PM
| E E Q  E E   +E  +E   E E E E E E
|------------|----------------------|
|------------|----------------------|
|------------|----------------------|
|-----5----7-|-(7)-(7)\-------------|
|-2-2-3--2-5-|-(5)-(5)\-2-2---2-2---|
|-0-0----0---|----------0-0---0-0---|


  N.C.
 3/4
  E E E E E E   E  E  E  E E E    E  E  E  E  E  E    E  E  E  E  E  E
|-------------|----------------|-------------------|-------------------|
|-------------|----------------|-------------------|-------------------|
|-5-5-5-5---5-|-4--4--4--4---4-|--7--7--7--7--7--7-|--4--4--4--4--4--4-|
|-x-x-x-x-x-x-|-x--x--x--x-x-x-|--x--x--x--x--x--x-|--x--x--x--x--x--x-|
|-3-3-3-3-x-3-|-2--2--2--2-x-2-|--5--5--5--5--5--5-|--2--2--2--2--2--2-|
|-------------|----------------|-------------------|-------------------|
|
| E E E E Q     E  E  E  E E E    E  E  E  E  E  E    E  E  E  E  E  E
|-------------|----------------|-------------------|-------------------|
|-------------|----------------|-------------------|-------------------|
|-9-9-9-9-----|-9-12-12-11---7-|-12-12-12-12-12-12-|-11-11-11-11-11-11-|
|-x-x-x-x-----|-x--x--x--x---x-|--x--x--x--x--x--x-|--x--x--x--x--x--x-|
|-7-7-7-7-----|-7-10-10--9---5-|-10-10-10-10-10-10-|--9--9--9--9--9--9-|
|-------------|----------------|-------------------|-------------------|


  N.C.
   E  E E E E E     E  E E E E E   E  E E E E E    E  E E E E E
|---------------|----------------|--------------|---------------|
|---------------|----------------|--------------|---------------|
|---------------|---4--4-4-------|--------------|--7--7-7-------|
|---------2-2-2-|----------2-2-2-|--------5-5-5-|---------5-5-5-|
|--0--0-0-------|----------------|-3--3-3-------|---------------|
|---------------|----------------|--------------|---------------|
|
|  H.              +H.             H.             +H.
|---------------|----------------|--------------|---------------|
|---------------|----------------|--------------|---------------|
|---------------|----------------|--------------|---------------|
|-10------------|-(10)-----------|-7------------|-(7)-----------|
|--x------------|--(x)-----------|-x------------|-(x)-----------|
|--8------------|--(8)-----------|-8------------|-(8)-----------|


  E5
  E H       E   H.             H.             H.
|-------------|--------------|--------------|--------------||
|-------------|--------------|--------------|--------------||
|-------------|--------------|--------------|--------------||
|-------------|--------------|--------------|--------------||
|-2-----------|--------------|--------------|--------------||
|-0-----------|--------------|--------------|--------------||
|
| PM-----------------------------------------------------|
| E E E E E E   E  E E E E E   E  E E E E E   E  E E E E E
|-------------|--------------|--------------|--------------||
|-------------|--------------|--------------|--------------||
|-------------|--------------|--------------|--------------||
|-------------|--------------|--------------|--------------||
|-2-2-2-2-2-2-|-2--2-2-2-2-2-|-2--2-2-2-2-2-|-2--2-2-2-2-2-||
|-0-0-0-0-0-0-|-0--0-0-0-0-0-|-0--0-0-0-0-0-|-0--0-0-0-0-0-||


   Interlude
    E5
   4/4
    Gtrs I, II
    PM-----------------------------------
    S S E E E E E E E   E E E E E E E E
||--------------------|-----------------|
||o-------------------|-----------------|
||--------------------|-----------------|
||--------------------|-----------------|
||o-2-2-2-2-2-2-2-2-2-|-2-2-2-2-2-2-2-2-|
||--0-0-0-0-0-0-0-0-0-|-0-0-0-0-0-0-0-0-|


                      1.
 -----------------------------------|
  S S E E E E E E E   E E E E E E E E
|-------------------|--------------------||
|-------------------|-------------------o||
|-------------------|--------------------||
|-------------------|--------------------||
|-2-2-2-2-2-2-2-2-2-|-2-2-2-2-2-2-2-2---o||
|-0-0-0-0-0-0-0-0-0-|-0-0-0-0-0-0-0-0----||


  2.
  E5
  PM--------------------------------------|
  E E E E E E E E   S S E S S E S S E S S E
|-----------------|-------------------------|
|-----------------|-------------------------|
|-----------------|-------------------------|
|-----------------|-------------------------|
|-2-2-2-2-2-2-2-2-|-2-2-2-2-2-2-2-2-2-2-2-2-|
|-0-0-0-0-0-0-0-0-|-0-0-0-0-0-0-0-0-0-0-0-0-|


    E5
    Gtr III
     E   E E E E Q.       E  E E E  E  E  E  E
||----------------------|----------------------|
||o---------------------|----------------------|
||--/9---9-9-9-9--------|---/9-9-9-12-12-12-12-|
||---x---x-x-x-x--------|----x-x-x--x--x--x--x-|
||o-/7---7-7-7-7--------|---/7-7-7-10-10-10-10-|
||----------------------|----------------------|
|
|   Gtrs I, II
|    PM-----------------------------------------
|    S S E E E E E  E E   E  E E E  E  E  E  E
||----------------------|----------------------|
||o---------------------|----------------------|
||----------------------|----------------------|
||----------------------|----------------------|
||o--2-2-2-2-2-2-2--2-2-|-2--2-2-2--2--2--2--2-|
||---0-0-0-0-0-0-0--0-0-|-0--0-0-0--0--0--0--0-|


  1.,2.,3.
   E    E  E  E  E Q.       E  E  E  E  E E E E   4x
|-------------------------|-----------------------||
|-------------------------|----------------------o||
|-11---11-11-11-11--------|---11-11-11-11-8-8-8---||
|--x----x--x--x--x--------|----x--x--x--x-x-x-x---||
|--9----9--9--9--9--------|----9--9--9--9-6-6-6--o||
|-------------------------|-----------------------||
|
|---------------------------------------------|
|  S S  E  E  E  E E  E E   E  E  E  E  E E E E   4x
|-------------------------|-----------------------||
|-------------------------|----------------------o||
|-------------------------|-----------------------||
|-------------------------|-----------------------||
|--2-2--2--2--2--2-2--2-2-|-2--2--2--2--2-2-2-2--o||
|--0-0--0--0--0--0-0--0-0-|-0--0--0--0--0-0-0-0---||


  4.
  E5
   E    E  E  E  E Q.       E    E   E   E  E E E +E
|-------------------------|----------------------------||
|-------------------------|-----(5)-(5)-(5)-5-5-5-(5)\-||
|-11---11-11-11-11--------|-----/7---7---7--7-7-7-(7)\-||
|--x----x--x--x--x--------|------x---x---x--x-x-x-(x)--||
|--9----9--9--9--9--------|-----/5---5---5--5-5-5-(5)\-||
|-------------------------|----------------------------||
|
|  PM---------------------------|
|  S S  E  E  E  E E  E E   S S  E   H.
|-------------------------|----------------------------||
|-------------------------|----------------------------||
|-------------------------|----------------------------||
|-------------------------|----------------------------||
|--2-2--2--2--2--2-2--2-2-|-2-2--2---------------------||
|--0-0--0--0--0--0-0--0-0-|-0-0--0---------------------||


 "You're not alone.."
  N.C.     E5             N.C.
  Gtrs I, II
           PM---------|
   E E E E S S E Q    +E   E E E  E  E  E  E
|-------------------|------------------------|
|-------------------|------------------------|
|-/9-9-9-9----------|-----/9-9-9-12-12-12-12-|
|--x-x-x-x----------|------x-x-x--x--x--x--x-|
|-/7-7-7-7-2-2-2-2--|-(2)-/7-7-7-10-10-10-10-|
|----------0-0-0-0--|-(0)--------------------|


              E5             N.C.
              PM---------|
   E  E  E  E S S E Q    +E   E  E  E  E E E E
|----------------------|-------------------------|
|----------------------|-------------------------|
|-11-11-11-11----------|-----11-11-11-11-8-8-8---|
|--x--x--x--x----------|------x--x--x--x-x-x-x---|
|--9--9--9--9-2-2-2-2--|-(2)--9--9--9--9-6-6-6---|
|-------------0-0-0-0--|-(0)---------------------|


  N.C.     E5             N.C.
  Gtr I
           PM---------|
   E E E E S S E Q    +E   E E E  E  E  E  E
|-------------------|------------------------|
|-------------------|------------------------|
|-/9-9-9-9----------|-----/9-9-9-12-12-12-12-|
|--x-x-x-x----------|------x-x-x--x--x--x--x-|
|-/7-7-7-7-2-2-2-2--|-(2)-/7-7-7-10-10-10-10-|
|----------0-0-0-0--|-(0)--------------------|
|
| Gtr II
|          PM---------|
|  E E E E S S E Q    +E   E E E  E  E  E  E
|-------------------|------------------------|
|-------------------|------------------------|
|-/9-9-9-9----------|-----/9-9-9-12-12-12-12-|
|--x-x-x-x----------|------x-x-x--x--x--x--x-|
|-/7-7-7-7-2-2-2-2--|-(2)-/7-7-7-10-10-10-10-|
|----------0-0-0-0--|-(0)--------------------|


              E5             N.C.        E
              PM---------|
   E  E  E  E S S E Q    +E   E  E  E  E E E E
|----------------------|-------------------------|
|----------------------|-------------------------|
|-11-11-11-11----------|-----11-11-11-11-8-8-8---|
|--x--x--x--x----------|------x--x--x--x-x-x-x---|
|--9--9--9--9-2-2-2-2--|-(2)--9--9--9--9-6-6-6---|
|-------------0-0-0-0--|-(0)---------------------|
|
|             PM---------|
|  E  E  E  E S S E Q    +E   E  E  E  E E E E
|----------------------|------0--0--0--0-0-0-0---|
|----------------------|------4--4--4--4-5-5-5---|
|-11-11-11-11----------|-------------------------|
|--x--x--x--x----------|-------------------------|
|--9--9--9--9-2-2-2-2--|-(2)---------------------|
|-------------0-0-0-0--|-(0)---------------------|


  N.C.     E5             N.C.
  Gtr III
   W                  +W
|-------------------|------------------------|
|-------------------|------------------------|
|--5----------------|-(5)--------------------|
|--x----------------|-(x)--------------------|
|--3----------------|-(3)--------------------|
|-------------------|------------------------|
|
| Gtrs I, II
|          PM---------|
|  E E E E S S E Q    +E   E E E  E  E  E  E
|-------------------|------------------------|
|-------------------|------------------------|
|-/9-9-9-9----------|-----/9-9-9-12-12-12-12-|
|--x-x-x-x----------|------x-x-x--x--x--x--x-|
|-/7-7-7-7-2-2-2-2--|-(2)-/7-7-7-10-10-10-10-|
|----------0-0-0-0--|-(0)--------------------|


              E5             N.C.
   W                     +W
|----------------------|-------------------------|
|----------------------|-------------------------|
|--7-------------------|-(7)---------------------|
|--x-------------------|-(x)---------------------|
|--5-------------------|-(5)---------------------|
|----------------------|-------------------------|
|
|             PM---------|
|  E  E  E  E S S E Q    +E   E  E  E  E E E E
|----------------------|-------------------------|
|----------------------|-------------------------|
|-11-11-11-11----------|-----11-11-11-11-8-8-8---|
|--x--x--x--x----------|------x--x--x--x-x-x-x---|
|--9--9--9--9-2-2-2-2--|-(2)--9--9--9--9-6-6-6---|
|-------------0-0-0-0--|-(0)---------------------|


  N.C.     E5             N.C.
  Gtr III
                       >
   W                  +W
|-------------------|------------------------|
|-------------------|------------------------|
|--9----------------|-(9)--------------------|
|--x----------------|-(x)--------------------|
|--7----------------|-(7)--------------------|
|-------------------|------------------------|
|
| Gtr I
|          PM---------|
|  E E E E S S E Q    +E   E E E  E  E  E  E
|-------------------|------------------------|
|-------------------|------------------------|
|-/9-9-9-9----------|-----/9-9-9-12-12-12-12-|
|--x-x-x-x----------|------x-x-x--x--x--x--x-|
|-/7-7-7-7-2-2-2-2--|-(2)-/7-7-7-10-10-10-10-|
|----------0-0-0-0--|-(0)--------------------|
|
| Gtr II
|          PM---------|
|  E E E E S S E Q    +E   E E E  E  E  E  E
|-------------------|------------------------|
|-------------------|------------------------|
|-/9-9-9-9----------|-----/9-9-9-12-12-12-12-|
|--x-x-x-x----------|------x-x-x--x--x--x--x-|
|-/7-7-7-7-2-2-2-2--|-(2)-/7-7-7-10-10-10-10-|
|----------0-0-0-0--|-(0)--------------------|


  F#b5                       Ebb5
  +W                     +W
|----------------------|------------------||
|----------------------|------------------||
|-(9)------------------|-(9)--------------||
|-(x)------------------|-(x)--------------||
|-(7)------------------|-(7)--------------||
|----------------------|------------------||
|
|  E   E  E  E  E Q.      E  E E E E E Q
|----------------------|------------------||
|----------------------|------------------||
|-11--11-11-11-11------|-----8-8---8-8----||
|-10--10-10-10-10------|-----7-7---7-7----||
|--9---9--9--9--9------|-----6-6---6-6----||
|----------------------|------------------||
|
|  E   E  E  E  E Q.      E  E E E E E Q
|----------------------|------------------||
|----------------------|------------------||
|-11--11-11-11-11------|-----8-8---8-8----||
|--x---x--x--x--x------|-----7-7---7-7----||
|--9---9--9--9--9------|-----6-6---6-6----||
|----------------------|------------------||


 Bridge
  N.C.  Ebb5
  Gtr I
    Q    H.         +W             +W             +W
|----------------|--------------|--------------|----------|
|-------<4>------|-(<4>)--------|-(<4>)--------|-(<4>)----|
|-!<5>-----------|--------------|--------------|----------|
|-!<5>-----------|--------------|--------------|----------|
|----------------|--------------|--------------|----------|
|----------------|--------------|--------------|----------|
|
| Gtr II
|   Q    H.         +W             +W             +W
|----------------|--------------|--------------|----------|
|----------------|--------------|--------------|----------|
|-!-x----8-------|--(8)---------|--(8)---------|--(8)-----|
|-!-x----7-------|--(7)---------|--(7)---------|--(7)-----|
|-!-x----6-------|--(6)---------|--(6)---------|--(6)-----|
|----------------|--------------|--------------|----------|


  N.C.                                  E5
                                                >              <
    \0.25_______/                               \7_____________/0_______
                                        PM------|
   +H          +H         +W            E E E E H        +Q   +H.
|----------------------|--------------|----------------|--------------||
|-(<4>)-------(<4>)----|-(<4>)--------|----------------|--------------||
|----------------------|--------------|----------------|--------------||
|----------------------|--------------|----------------|--------------||
|----------------------|--------------|-2-2---2-2------|-(2)--(2)-----||
|----------------------|--------------|-0-0---0-0------|-(0)--(0)-----||
|
|                                               >              <
|                                               \7_____________/0_______
|                                       PM------|
|   H           H         +W            E E E E H        +Q   +H.
|----------------------|--------------|----------------|--------------||
|----------------------|--------------|----------------|--------------||
|--------------<5>-----|-(<5>)--------|----------------|--------------||
|--<4>-----------------|--------------|----------------|--------------||
|----------------------|--------------|-2-2---2-2------|-(2)--(2)-----||
|----------------------|--------------|-0-0---0-0------|-(0)--(0)-----||


   Breakdown
    E5        N.C.      E5      N.C.    E5        N.C.
    Gtrs I, II
    PM------|           PM----|         PM------|
    E E E E E E E E   E E E E E E E E   E E E E E E E E
||------------0-0-0-|-0---------0-0-0-|-----------0-0-0-|
||o-----------4-4-4-|-4---------4-4-4-|-----------4-4-4-|
||------------------|-----------------|-----------------|
||------------------|-----------------|-----------------|
||o-2-2---2-2-------|---2-2-2-2-------|-2-2---2-2-------|
||--0-0---0-0-------|---0-0-0-0-------|-0-0---0-0-------|


  N.E5      N.C.    E5        N.C.
    PM----|         PM------|
  E E E E E E E E   E E E E E E E E   E E E E E E E     E
|-0---------0-0-0-|-----------0-0-0-|---------------------|
|-4---------4-4-4-|-----------4-4-4-|---------------------|
|-----------------|-----------------|---------------------|
|-----------------|-----------------|-2-------------------|
|---2-2-2-2-------|-2-2---2-2-------|---3-2-0-3-2---------|
|---0-0-0-0-------|-0-0---0-0-------|-------------3b3.5r3-|


  E5        N.C.      E5      N.C.    C5                        B5
  PM------|           PM----|
  E E E E E E E E   E E E E E E E E   E E E E E E E E   E E E E E E E E
|-----------0-0-0-|-0---------0-0-0-|-----------------|------------------||
|-----------4-4-4-|-4---------4-4-4-|-----------------|-----------------o||
|-----------------|-----------------|-5-5-5-5-5-5-5-5-|-5-5-5-5-4-4-4-4--||
|-----------------|-----------------|-5-5-5-5-5-5-5-5-|-5-5-5-5-4-4-4-4--||
|-2-2---2-2-------|---2-2-2-2-------|-3-3-3-3-3-3-3-3-|-3-3-3-3-2-2-2-2-o||
|-0-0---0-0-------|---0-0-0-0-------|-----------------|------------------||


 "I've seen the dead.."
  E5
  Gtr I
   E  E  E  E  E  E  E  E    E  E  E  E  E  E  E  E
|-12-12-12-12-12-12-12-12-|-12-12-12-12-12-12-12-12-|
|--x--x--x--x--x--x--x--x-|--x--x--x--x--x--x--x--x-|
|--9--9--9--9--9--9--9--9-|--9--9--9--9--9--9--9--9-|
|-------------------------|-------------------------|
|-------------------------|-------------------------|
|-------------------------|-------------------------|
|
| Gtr II
|  PM------------------------------------------------
|  E  E  E  E  E  E  Q       E  E  E  E  E  E  Q
|-------------------------|-------------------------|
|-------------------------|-------------------------|
|-------------------------|-------------------------|
|-------------------------|-------------------------|
|--2--2-----2-----2-------|-----2--2--2-----2-------|
|--0--0-----0-----0-------|-----0--0--0-----0-------|


   E  E  E  E  E  E  E  E    E  E  E  E  E  E  E  E
|-10-10-10-10-10-10-10-10-|-10-10-10-10-10-10-10-10-|
|--7--7--7--7--7--7--7--7-|--7--7--7--7--7--7--7--7-|
|-------------------------|-------------------------|
|-------------------------|-------------------------|
|-------------------------|-------------------------|
|-------------------------|-------------------------|
|
|------------------------------------------|
|  E  E  E  E  E  E  Q       E  E  E  E  E  E  Q
|-------------------------|-------------------------|
|-------------------------|-------------------------|
|-------------------------|-------------------------|
|-------------------------|-------------------------|
|--2--2-----2-----2-------|-----2--2--2-----2-------|
|--0--0-----0-----0-------|-----0--0--0-----0-------|


  E5
   E  E  E  E  E  E  E  E    E  E  E  E  E  E  E  +E
|-15-15-15-15-15-15-15-15-|-14-14-14-14-14-14-14-(14)\-|
|--x--x--x--x--x--x--x--x-|--x--x--x--x--x--x--x--(x)--|
|-12-12-12-12-12-12-12-12-|-11-11-11-11-11-11-11-(11)\-|
|-------------------------|----------------------------|
|-------------------------|----------------------------|
|-------------------------|----------------------------|
|
|  PM-----------------------------------------|
|  E  E  E  E  E  E  Q       E  E  E  E  E  E  Q
|-------------------------|----------------------------|
|-------------------------|----------------------------|
|-------------------------|----------------------------|
|-------------------------|----------------------------|
|--2--2-----2-----2-------|-----2--2--2-----2----------|
|--0--0-----0-----0-------|-----0--0--0-----0----------|


  C5                        B5
  E E E E E E E E   E E E E E E E E
|-----------------|-----------------|
|-----------------|-----------------|
|-5-5-5-5-5-5-5-5-|-5-5-5-5-4-4-4-4-|
|-5-5-5-5-5-5-5-5-|-5-5-5-5-4-4-4-4-|
|-3-3-3-3-3-3-3-3-|-3-3-3-3-2-2-2-2-|
|-----------------|-----------------|
|
| E E E E E E E E   E E E E E E E E
|-----------------|-----------------|
|-----------------|-----------------|
|-5-5-5-5-5-5-5-5-|-5-5-5-5-4-4-4-4-|
|-5-5-5-5-5-5-5-5-|-5-5-5-5-4-4-4-4-|
|-3-3-3-3-3-3-3-3-|-3-3-3-3-2-2-2-2-|
|-----------------|-----------------|


  D5              Eb5
 2/4
  H      +H       H       H
|------|--------|------|--------||
|------|--------|------|--------||
|-7----|-(7)----|-8----|--------||
|-7----|-(7)----|-8----|--9-----||
|-5----|-(5)----|-6----|--9-----||
|------|--------|------|--7-----||
|
| H      +H       H      +H
|------|--------|------|--------||
|------|--------|------|--------||
|-7----|-(7)----|-8----|-(8)----||
|-7----|-(7)----|-8----|-(8)----||
|-5----|-(5)----|-6----|-(6)----||
|------|--------|------|--------||


 "Tangled in a silver.."
  N.C.
 3/4
  E E E E E E   E  E  E  E E E    E  E  E  E  E  E    E  E  E  E  E  E
|-------------|----------------|-------------------|-------------------|
|-------------|----------------|-------------------|-------------------|
|-5-5-5-5---5-|-4--4--4--4---4-|--7--7--7--7--7--7-|--4--4--4--4--4--4-|
|-x-x-x-x-x-x-|-x--x--x--x-x-x-|--x--x--x--x--x--x-|--x--x--x--x--x--x-|
|-3-3-3-3-x-3-|-2--2--2--2-x-2-|--5--5--5--5--5--5-|--2--2--2--2--2--2-|
|-------------|----------------|-------------------|-------------------|
|
| E E E E Q     E  E  E  E E E    E  E  E  E  E  E    E  E  E  E  E  E
|-------------|----------------|-------------------|-------------------|
|-------------|----------------|-------------------|-------------------|
|-9-9-9-9-----|-9-12-12-11---7-|-12-12-12-12-12-12-|-11-11-11-11-11-11-|
|-x-x-x-x-----|-x--x--x--x---x-|--x--x--x--x--x--x-|--x--x--x--x--x--x-|
|-7-7-7-7-----|-7-10-10--9---5-|-10-10-10-10-10-10-|--9--9--9--9--9--9-|
|-------------|----------------|-------------------|-------------------|


  N.C.
   E  E E E E E     E  E E E E E   E  E E E E E    E  E E E E E
|---------------|----------------|--------------|---------------|
|---------------|----------------|--------------|---------------|
|---------------|---4--4-4-------|--------------|--7--7-7-------|
|---------2-2-2-|----------2-2-2-|--------5-5-5-|---------5-5-5-|
|--0--0-0-------|----------------|-3--3-3-------|---------------|
|---------------|----------------|--------------|---------------|
|
|  H.              +H.             H.             +H.
|---------------|----------------|--------------|---------------|
|---------------|----------------|--------------|---------------|
|---------------|----------------|--------------|---------------|
|-10------------|-(10)-----------|-7------------|-(7)-----------|
|--x------------|--(x)-----------|-x------------|-(x)-----------|
|--8------------|--(8)-----------|-8------------|-(8)-----------|


  N.C.
  E E E E E E    E  E  E  E E E    E E  E E E E    E E  E E  E E
|-------------|-----------------|---------------|----------------|
|-------------|-----------------|---------------|----------------|
|-5-5-5-5---5-|--4--4--4--4---4-|--7-7--7-7-7-7-|--4-4--4-4--4-4-|
|-x-x-x-x-x-x-|--x--x--x--x-x-x-|--x-x--x-x-x-x-|--x-x--x-x--x-x-|
|-3-3-3-3-x-3-|--2--2--2--2-x-2-|--5-5--5-5-5-5-|--2-2--2-2--2-2-|
|-------------|-----------------|---------------|----------------|
|
| E E E E Q      E  E  E  E E E    Q    Q   Q      Q    Q    Q
|-------------|-----------------|---------------|----------------|
|-------------|-----------------|---------------|----------------|
|-9-9-9-9-----|-12-12-11-11---7-|-12---11---9---|-11---12---11---|
|-x-x-x-x-----|--x--x--x--x---x-|--x----x---x---|--x----x----x---|
|-7-7-7-7-----|-10-10--9--9---5-|-10----9---7---|--9---10----9---|
|-------------|-----------------|---------------|----------------|


  N.C.                 E5   N.C.     E5
                           4/4
  Gtrs I, II
  PM|   PM|     PM|    PM            PM--|
                            |-3-|
  E E E E E E   E E Q  q    E E E Q  E E E E
|-----2-----3-|-----5-----|-3-5-3-2----------|
|-1-1---1-1---|-1-1-------|------------------|
|-------------|-----------|------------------|
|-------------|-----------|------------------|
|-------------|--------2--|----------2-2-2---|
|-------------|--------0--|----------0-0-0---|


  N.C.
 3/4
  Gtr I
  E E E E E E   E  E  E  E E E    E  E  E  E  E  E    E  E  E  E  E  E
|-------------|----------------|-------------------|-------------------||
|-------------|----------------|-------------------|-------------------||
|-5-5-5-5---5-|-4--4--4--4---4-|--7--7--7--7--7--7-|--4--4--4--4--4--4-||
|-x-x-x-x-x-x-|-x--x--x--x-x-x-|--x--x--x--x--x--x-|--x--x--x--x--x--x-||
|-3-3-3-3-x-3-|-2--2--2--2-x-2-|--5--5--5--5--5--5-|--2--2--2--2--2--2-||
|-------------|----------------|-------------------|-------------------||
|
| Gtr II
| E E E E Q     E  E  E  E E E    E  E  E  E  E  E    E  E  E  E  E  E
|-------------|----------------|-------------------|-------------------||
|-------------|----------------|-------------------|-------------------||
|-9-9-9-9-----|-9-12-12-11---7-|-12-12-12-12-12-12-|-11-11-11-11-11-11-||
|-x-x-x-x-----|-x--x--x--x---x-|--x--x--x--x--x--x-|--x--x--x--x--x--x-||
|-7-7-7-7-----|-7-10-10--9---5-|-10-10-10-10-10-10-|--9--9--9--9--9--9-||
|-------------|----------------|-------------------|-------------------||


 Outro
  F#m/A            A5              B5               G5
 6/4
   >               >                >               >
   ~~~~~~~~~~~~~~~~~~~~~~~~~~~~~~~~~~~~~~~~~~~~~~~~~~~~
   W.              W.               W.              W.
|----------------|---------------|----------------|-------|
|----------------|---------------|----------------|-------|
|-11-------------|-9-------------|-11-------------|-7-----|
|--x-------------|-x-------------|--x-------------|-x-----|
|--9-------------|-7-------------|--9-------------|-5-----|
|----------------|---------------|----------------|-------|
|
|  W.              W.               W.              W.
|----------------|---------------|----------------|-------|
|----------------|---------------|----------------|-------|
|----------------|---------------|----------------|-------|
|--7-------------|-7-------------|--9-------------|-5-----|
|--9-------------|-7-------------|--9-------------|-5-----|
|--5-------------|-5-------------|--7-------------|-3-----|


  F#5
  >
  ~~~~~~~~~~~~~~~~~~~~~~~~~~~~~~~~~~~~~
  W.              +W.              +W.              +W.
|---------------|----------------|----------------|--------*|
|---------------|----------------|----------------|--------*|
|-6-------------|-(6)------------|-(6)------------|-(6)----*|
|-x-------------|-(x)------------|-(x)------------|-(x)----*|
|-4-------------|-(4)------------|-(4)------------|-(4)----*|
|---------------|----------------|----------------|--------*|
|
| >
| W.              +W.              +W.              +W.
|---------------|----------------|----------------|--------*|
|---------------|----------------|----------------|--------*|
|---------------|----------------|----------------|--------*|
|-4-------------|-(4)------------|-(4)------------|-(4)----*|
|-4-------------|-(4)------------|-(4)------------|-(4)----*|
|-2-------------|-(2)------------|-(2)------------|-(2)----*|





Comments


Popular Bled tabs & chords
Get Up You Son Of A Bitch, Cause Mickey Loves Ya Bass Tabs
You Know Whos Seatbelt Bass Tabs
Antarctica Tabs
Hotel Coral Essex Tabs
I Never Met Another Gemini Tabs
I Never Met Another Gemini 1 Tabs
I Never Met Another Gemini 2 Tabs
Last American Cowboy Intro Tabs
Porcelain Hearts And Hammers For Teeth (Intro Ver 2) Tabs
Porcelain Hearts And Hammers For Teeth Intro 1 Tabs


Song lyrics



↑ Back to top | Tablatures and chords are parodies/interpretations of the original songs. You may use it for private study, scholarship, research or language learning purposes only
© 2014 AZChords.com Contact us | Privacy policy | DMCA | Add/correct tabs | Request tabs | Top 50 tabs