>
 >
Ruth Buzzi Better Watch Her Back

Ruth Buzzi Better Watch Her Back Bass Tabs

Bled - Ruth Buzzi Better Watch Her Back chords, tabs, tablatures, lyrics

Guitar lessons | Add/correct | Request | Top 50 tabs Artists:  A B C D E F G H I J K L M N O P Q R S T U V W X Y Z 0-9

Ruth Buzzi Better Watch Her Back Bass Tabs – Bled

CD, Sheet music, Poster

Do you like Ruth Buzzi Better Watch Her Back? Share with your friends now
Bass TabsBass Tabs v2Tabs
Band: The Bled
Tuning: DGCF (C#)

|----------------|----------------|----------------|-----------------|
|----------------|----------------|----------------|-----------------|
|----------7-----|----------7-----|----------7-----|-----------------|
|-0-1-0----------|-0-1-0----------|-0-1-0----------|-0-1-0-1-3-1-0-1-|




|----------------|----------------||----------------|---------------------||
|----------------|----------------||----------------|---------------------||
|----------7-----|----------7-----||----------------|---------------------||
|-0-1-0----------|-0-1-0----------||--0-0-0-0-0-0---|-0-0-0-0-0-0-0-0-0---||





|--------------------|-----------------------|
|--------------------|-----------------------|
|--------------------|-----------------------|
|-0-0-0-0-0-0-(0)----|-(0)-0-0-0-0-0-0-0-0-0-|



|--------------------|-----------------------|
|--------------------|-----------------------|
|--------------------|-----------------------|
|-0-0-0-0-0-0-(0)----|-(0)-0-0-0-0-0-0-0-0---|



|----------------|----------------|----------------|-----------------|
|----------------|----------------|----------------|-----------------|
|----------7-----|----------7-----|----------7-----|-----------------|
|-0-1-0----------|-0-1-0----------|-0-1-0----------|-0-1-0-1-3-1-0-1-|
|

|----------------|-----------------|---------|
|----------------|-----------------|---------|
|----------7-----|----------8------|----8----|
|-0-1-0----------|-0-1-0-----------|-0-------|




 
|-----------------|-------------------|
|-----------------|-------------------|
|-1-1-1-1-1-1-1-1-|-1-1-1-1-1-1-1-1-1-|
|-----------------|-------------------|


|-----------------|-------------------|
|-----------------|-------------------|
|-0-0-0-0-0-0-0-0-|-0-0-0-0-0-0-0-0-0-|
|-----------------|-------------------|




 "Tangled in a silver.."

|-------------|----------------|-------------------|-------------------|
|-------------|----------------|-------------------|-------------------|
|-3-3-3-3---3-|-2--2--2--2---2-|--5--5--5--5--5--5-|--2--2--2--2--2--2-|
|-------------|----------------|-------------------|-------------------|




|---------------|----------------|--------------|---------------|
|---------------|----------------|--------------|---------------|
|---------------|----------------|--------------|---------------|
|--8------------|--(8)-----------|-5------------|-(5)-----------|


|-------------|----------------|-------------------|-------------------|
|-------------|----------------|-------------------|-------------------|
|-3-3-3-3---3-|-2--2--2--2---2-|--5--5--5--5--5--5-|--2--2--2--2--2--2-|
|-------------|----------------|-------------------|-------------------|



|------------|----------------------|
|------------|----------------------|
|-----3----5-|-(5)-(5)\-------------|
|-0-0----0---|----------0-0---0-0---|



|-------------|----------------|-------------------|-------------------|
|-------------|----------------|-------------------|-------------------|
|-3-3-3-3---3-|-2--2--2--2---2-|--5--5--5--5--5--5-|--2--2--2--2--2--2-|
|-------------|----------------|-------------------|-------------------|


|---------------|----------------|--------------|---------------|
|---------------|----------------|--------------|---------------|
|---------------|----------------|--------------|---------------|
|--8------------|--(8)-----------|-5------------|-(5)-----------|



Short pause before bass and drums kick in properly

   Interlude

|--------------------|-----------------|
|--------------------|-----------------|
|--------------------|-----------------|
|--0-0-0-0-0-0-0-0-0-|-0-0-0-0-0-0-0-0-|



|-------------------|--------------------|
|-------------------|--------------------|
|-------------------|--------------------|
|-0-0-0-0-0-0-0-0-0-|-0-0-0-0-0-0-0-0----|



|----------------------|----------------------|
|----------------------|----------------------|
|----------------------|----------------------|
|---0-0-0-0-0-0-0--0-0-|-0--0-0-0--0--0--0--0-|



|-------------------------|-----------------------|
|-------------------------|-----------------------|
|-------------------------|-----------------------|
|--0-0--0--0--0--0-0--0-0-|-0--0--0--0--0-0-0-0---|




|-------------------------|----------------------------|
|-------------------------|----------------------------|
|-------------------------|----------------------------|
|--0-0--0--0--0--0-0--0-0-|-0-0--0---------------------|


 "You're not alone.."

|-------------------|------------------------|
|-------------------|------------------------|
|-/7-7-7-7----------|-----/7-7-7-10-10-10-10-|
|----------0-0-0-0--|-(0)--------------------|



|----------------------|-------------------------|
|----------------------|-------------------------|
|--9--9--9--9----------|------9--9--9--9-6-6-6---|
|-------------0-0-0-0--|-(0)---------------------|



|-------------------|------------------------|
|-------------------|------------------------|
|-/7-7-7-7----------|-----/7-7-7-10-10-10-10-|
|----------0-0-0-0--|-(0)--------------------|


 
|----------------------|-------------------------|
|----------------------|-------------------------|
|--9--9--9--9----------|------9--9--9--9-6-6-6---|
|-------------0-0-0-0--|-(0)---------------------|




|-------------------|------------------------|
|-------------------|------------------------|
|-/7-7-7-7----------|-----/7-7-7-10-10-10-10-|
|----------0-0-0-0--|-(0)--------------------|




|----------------------|-------------------------|
|----------------------|-------------------------|
|--9--9--9--9----------|------9--9--9--9-6-6-6---|
|-------------0-0-0-0--|-(0)---------------------|



|-------------------|------------------------|
|-------------------|------------------------|
|--7----------------|-(7)--------------------|
|-------------------|------------------------|


|-------------------|------------------------|
|-------------------|------------------------|
|-/7-7-7-7----------|-----/7-7-7-10-10-10-10-|
|----------0-0-0-0--|-(0)--------------------|



|----------------------|------------------|
|----------------------|------------------|
|--9---9--9--9--9------|-----6-6---6-6----|
|----------------------|------------------|



 Bridge

|----------------|--------------|--------------|----------|
|----------------|--------------|--------------|----------|
|--------6-------|--(6)---------|--(6)---------|----------|
|----------------|--------------|--------------|----------|




|--------------|----------------|--------------|
|--------------|----------------|--------------|
|--------------|----------------|--------------|
|--------------|-0-0---0-0------|-(0)--(0)-----|



 Breakdown (x2)
|------------------|-----------------|-----------------|
|------------------|-----------------|-----------------|
|------------------|-----------------|-----------------|
|--0-0---0-0-------|---0-0-0-0-------|-0-0---0-0-------|



|-----------------|-----------------|---------------------|
|-----------------|-----------------|-2-------------------|
|-----------------|-----------------|---3-2-0-3-2---------|
|---0-0-0-0-------|-0-0---0-0-------|-------------3-------|



|-----------------|-----------------|-----------------|------------------|
|-----------------|-----------------|-----------------|------------------|
|-----------------|-----------------|-3-3-3-3-3-3-3-3-|-3-3-3-3-2-2-2-2--|
|-0-0---0-0-------|---0-0-0-0-------|-----------------|------------------|


 "I've seen the dead.."
  

|-------------------------|-------------------------|
|-------------------------|-------------------------|
|-------------------------|-------------------------|
|--0--0-----0-----0-------|-----0--0--0-----0-------|




|-------------------------|-------------------------|
|-------------------------|-------------------------|
|-------------------------|-------------------------|
|--0--0-----0-----0-------|-----0--0--0-----0-------|




|-------------------------|----------------------------|
|-------------------------|----------------------------|
|-------------------------|----------------------------|
|--0--0-----0-----0-------|-----0--0--0-----0----------|



|-----------------|-----------------|
|-----------------|-----------------|
|-3-3-3-3-3-3-3-3-|-3-3-3-3-2-2-2-2-|
|-----------------|-----------------|
|



|------|--------|------|--------|
|------|--------|------|--------|
|-5----|-(5)----|-6----|--------|
|------|--------|------|--7-----|





|----------------|-------------------|-------------------|
|----------------|-------------------|-------------------|
|-2--2--2--2-x-2-|--5--5--5--5--5--5-|--2--2--2--2--2--2-|
|----------------|-------------------|-------------------|




|---------------|----------------|--------------|---------------|
|---------------|----------------|--------------|---------------|
|---------------|----------------|--------------|---------------|
|--8------------|--(8)-----------|-5------------|-(5)-----------|



|-------------|-----------------|---------------|----------------|
|-------------|-----------------|---------------|----------------|
|-3-3-3-3-x-3-|--2--2--2--2-x-2-|--5-5--5-5-5-5-|--2-2--2-2--2-2-|
|-------------|-----------------|---------------|----------------|





|-------------|----------------|-------------------|-------------------|
|-------------|----------------|-------------------|-------------------|
|-3-3-3-3-x-3-|-2--2--2--2-x-2-|--5--5--5--5--5--5-|--2--2--2--2--2--2-|
|-------------|----------------|-------------------|-------------------|



 Outro


|----------------|---------------|----------------|---------------|
|----------------|---------------|----------------|---------------|
|----------------|---------------|----------------|---------------|
|--8-------------|--(8)----------|--5-------------|--(5)----------|




|---------------|----------------|----------------|---------------|
|---------------|----------------|----------------|---------------|
|---------------|----------------|----------------|---------------|
|--7------------|-(7)------------|--3-------------|-(3)-----------|



|---------------|----------------|----------------|---------------|
|---------------|----------------|----------------|---------------|
|---------------|----------------|----------------|---------------|
|--2------------|-(2)------------|-(2)------------|-(2)-----------|



Thanks.. please rate kindly =)

Bass tab for Sound of Sulfur will be up soon.





Comments


Popular Bled tabs & chords
Red Wedding Bass Tabs
Ruth Buzzi Better Watch Her Back 1 Bass Tabs
Antarctica Tabs
Dale Earnharts Seatbelt Tabs
House Of Suffering Tabs
Last American Cowboy Intro Tabs
My Assassin Tabs
Ok But This Is How It Really Happened Tabs
Porcelain Hearts And Hammers For Teeth Intro 1 Tabs
We Are The Industry Tabs


Song lyrics



↑ Back to top | Tablatures and chords are parodies/interpretations of the original songs. You may use it for private study, scholarship, research or language learning purposes only
© 2014 AZChords.com Contact us | Privacy policy | DMCA | Add/correct tabs | Request tabs | Top 50 tabs