» » »

I Never Met Another Gemini Tabs (ver.3)

Artists:  A B C D E F G H I J K L M N O P Q R S T U V W X Y Z # 

I Never Met Another Gemini Tabs (ver.3)

Bled
Rating:
4/5 (7 votes)

Hard to play? Try these video lessons and learn fast.
                -----------------------------------------------------------------------
                I Never Met Another Gemini - The Bled
-----------------------------------------------------------------------

Tuning:CGCFAD

Intro
D|------15----15--------15----15--------15----15--------15--15-x------|
A|----19----19----19--19----19----19--19----19----19--19-------x------|
F|--17----17----17--16----16----16--17----17----17--19----19---x------|
C|--------------------------------------------------------------------|
G|--------------------------------------------------------------------|
C|--------------------------------------------------------------------|

"Slowly we peel away the layers an the light seeps through the cracks."
D|--------------------------------------------------------------------|
A|--------------------------------------------------------------------|
F|--5-----9-----------------------------------------------------------|
C|--5-x16-9-x16-9-----12----------------------------------------------|
G|--3-----7-----9-x24-12-x8-------------------------------------------|
C|--------------9-----12----------------------------------------------|

"You whispered softly in my ear 'the birth of morning's upon us dear,'"
D|--------------------------------------------------------------------|
A|--------------------------------------------------------------------|
F|--5-----9-----------------------------------------------------------|
C|--5-x16-9-x16-9-----12----------------------------------------------|
G|--3-----7-----9-x24-12-x8-------------------------------------------|
C|--------------9-----12----------------------------------------------|

"the bandages fell upon the floor."
D|--------------------------------------------------------------------|
A|--------------------------------------------------------------------|
F|--5-----7-----------------------------------------------------------|
C|--5-x16-7-x16-------------------------------------------------------|
G|--3-----5-----------------------------------------------------------|
C|--------------------------------------------------------------------|

"And there was no one in that room."
D|--------------------------------------------------------------------|
A|--17p0-15p0-13p0-12p0-13p0-12--12-17p0-15p0-13p0-12p0-13p0-12p0-----|
F|-----------------------------12--------------------------------14p0-|
C|--------------------------------------------------------------------|
G|--------------------------------------------------------------------|
C|--------------------------------------------------------------------|

"And there was no one in that room."
D|--------------------------------------------------------------------|
A|--12p0-17p0-15p0-13p0-12p0-13p0-12--12--12--13-12-------------------|
F|----------------------------------12—-12--12------------------------|
C|--------------------------------------------------------------------|
G|--------------------------------------------------------------------|
C|--------------------------------------------------------------------|

"And it's quiet down the hallway..."
D|--------------------------------------------------------------------|
A|--17p0-15p0-13p0-12p0-13p0-12--12-17p0-15p0-13p0-12p0-13p0-12p0-----|
F|-----------------------------12--------------------------------14p0-|
C|--------------------------------------------------------------------|
G|--------------------------------------------------------------------|
C|--------------------------------------------------------------------|

"...where the doctors wash their hands."
D|--------------------------------------------------------------------|
A|--12p0-17p0-15p0-13p0-12p0-13p0-12--12--12--13-12-------------------|
F|----------------------------------12—-12--12------------------------|
C|--------------------------------------------------------------------|
G|--------------------------------------------------------------------|
C|--------------------------------------------------------------------|

"Behind my eyes I feel the hollow jabs of your morphine kiss."
D|--------------------------------------------------------------------|
A|--------------------------------------------------------------------|
F|--5-----9-----------------------------------------------------------|
C|--5-x16-9-x16-9-----12----------------------------------------------|
G|--3-----7-----9-x24-12-x8-------------------------------------------|
C|--------------9-----12----------------------------------------------|

"Your anesthetic voice is autographed upon my bones."
D|--------------------------------------------------------------------|
A|--------------------------------------------------------------------|
F|--5-----9-----------------------------------------------------------|
C|--5-x16-9-x16-9-----12----------------------------------------------|
G|--3-----7-----9-x24-12-x8-------------------------------------------|
C|--------------9-----12----------------------------------------------|

"This reception died in vein."
D|--------------------------------------------------------------------|
A|--------------------------------------------------------------------|
F|--5-----7-----------------------------------------------------------|
C|--5-x16-7-x16-------------------------------------------------------|
G|--3-----5-----------------------------------------------------------|
C|--------------------------------------------------------------------|

"In vain..." (Unfortunately I couldn't figure out this part: help me out)
D|--------------------------------------------------------------------|
A|--------------------------------------------------------------------|
F|--------------------------------------------------------------------|
C|--------------------------------------------------------------------|
G|--------------------------------------------------------------------|
C|--------------------------------------------------------------------|

"A tarnished angel leaves her ghost no the surface."
D|--------------------------------------------------------------------|
A|--------------------------------------------------------------------|
F|--5-----9-----------------------------------------------------------|
C|--5-x16-9-x16-9-----12----------------------------------------------|
G|--3-----7-----9-x24-12-x8-------------------------------------------|
C|--------------9-----12----------------------------------------------|

"A jealous daughter starves to death for the mother..."
D|--------------------------------------------------------------------|
A|--------------------------------------------------------------------|
F|--5-----9-----------------------------------------------------------|
C|--5-x16-9-x16-9-----12----------------------------------------------|
G|--3-----7-----9-x24-12-x8-------------------------------------------|
C|--------------9-----12----------------------------------------------|

"...As I awaited your return."
D|--------------------------------------------------------------------|
A|--17p0-15p0-13p0-12p0-13p0-12p0----12p0-17p0-15p0-13p0-12p0-13p0----|
F|-------------------------------14p0---------------------------------|
C|--------------------------------------------------------------------|
G|--------------------------------------------------------------------|
C|--------------------------------------------------------------------|

D|--------------------------------------------------------------------|
A|--12p0----12p0-17p0-15p0-13p0-12p0-13p0-12p0----12p0-—12--13--12--12|
F|------14p0----------------------------------14p0----12--12--12--12--|
C|--------------------------------------------------------------------|
G|--------------------------------------------------------------------|
C|--------------------------------------------------------------------|

"As I awaited your return."
D|--------------------------------------------------------------------|
A|--17p0-15p0-13p0-12p0-13p0-12p0----12p0-17p0-15p0-13p0-12p0-13p0----|
F|-------------------------------14p0---------------------------------|
C|--------------------------------------------------------------------|
G|--------------------------------------------------------------------|
C|--------------------------------------------------------------------|

D|--------------------------------------------------------------------|
A|--12p0----12p0-17p0-15p0-13p0-12p0-13p0-12p0----12p0-—12—-12-13-----|
F|------14p0----------------------------------14p0----12--12----------|
C|--------------------------------------------------------------------|
G|--------------------------------------------------------------------|
C|--------------------------------------------------------------------|

"I wait for your return" (Sorry but this is another part I don't know)
D|--------------------------------------------------------------------|
A|--------------------------------------------------------------------|
F|--------------------------------------------------------------------|
C|--------------------------------------------------------------------|
G|--------------------------------------------------------------------|
C|--------------------------------------------------------------------|

"It seems the only way that I will ever feel alive."
D|----12--10--8--10---------------------------------------------------|
A|---8---8---8--8-----------------------------------------------------|
F|--9---9---9--9------------------------------------------------------|
C|--------------------------------------------------------------------|
G|--------------------------------------------------------------------|
C|--------------------------------------------------------------------|

"Throw myself into my injuries and close my eyes"
D|----12--10--8--10---------------------------------------------------|
A|---8---8---8--8-----------------------------------------------------|
F|--9---9---9--9------------------------------------------------------|
C|--------------------------------------------------------------------|
G|--------------------------------------------------------------------|
C|--------------------------------------------------------------------|

"I'd give anything to feel alive."(these last few parts are hell, I can't figure them out...HELP)
D|--------------------------------------------------------------------|
A|--------------------------------------------------------------------|
F|--------------------------------------------------------------------|
C|--------------------------------------------------------------------|
G|--------------------------------------------------------------------|
C|--------------------------------------------------------------------|

"And I will wait for you tonight."
D|--------------------------------------------------------------------|
A|--------------------------------------------------------------------|
F|-----------------------------------17--16----------17--16-----------|
C|---------------------------------14--14--14--14--14--14--14--14-----|
G|-------------------------------15----------15--15----------15-------|
C|--------------------------------------------------------------------|

"The scalpel carves a map for you."
D|--------------------------------------------------------------------|
A|--------------------------------------------------------------------|
F|--------------------------------------------------------------------|
C|--------------------------------------------------------------------|
G|--------------------------------------------------------------------|
C|--------------------------------------------------------------------|

"And I will wait for you."
D|--------------------------------------------------------------------|
A|--------------------------------------------------------------------|
F|--------------------------------------------------------------------|
C|--------------------------------------------------------------------|
G|--------------------------------------------------------------------|
C|--------------------------------------------------------------------|


| /  slide up
| \  slide down
| h  hammer-on
| p  pull-off
| ~  vibrato
| +  harmonic
| x  Mute note
===============================================================================
            
Hard to play? Try these video lessons and learn fast. | Correct




comments powered by Disqus
↑ Back to top | Tablatures and chords are parodies/interpretations of the original songs. You may use it for private study, scholarship, research or language learning purposes only