>
 >
I Never Met Another Gemini

I Never Met Another Gemini Guitar Tabs

Bled - I Never Met Another Gemini chords, tabs, tablatures, lyrics

Guitar lessons | Add/correct | Request | Top 50 tabs Artists:  A B C D E F G H I J K L M N O P Q R S T U V W X Y Z 0-9

I Never Met Another Gemini Guitar Tabs – Bled

CD, Sheet music, Poster

Do you like I Never Met Another Gemini? Share with your friends now
Bass TabsTabsTabs v2Tabs v3
#------------------------------------------------------------------------------##

                           I NEVER MET ANOTHER GEMINI
                             As recorded by The Bled
                      (From the 2003 Album PASS THE FLASK)

Words and Music by The Bled
Arranged by The Bled

Gtr I (D G C F A D) - 'Distorted'
Gtr II (D G C F A D) - 'Distorted'
Gtr III (D G C F A D) - 'Clean'
Gtr IV (D G C F A D) - 'Clean'
Gtr V (D G C F A D) - 'Choir'

 Intro
  Q=122
  N.C.
 4/4
  Gtr III
   E  E  E  E  E  E  E  E    E  E  E  E  E  E  E  E
|----14-15----14-15----14-|----14-15----14-15----14-|
|-13-------13-------13----|-12-------12-------12----|
|-------------------------|-------------------------|
|-------------------------|-------------------------|
|-------------------------|-------------------------|
|-------------------------|-------------------------|
|
| Gtr II
|  W                         W
|-------------------------|-------------------------|
|-------------------------|-------------------------|
|-------------------------|-------------------------|
|-------------------------|-------------------------|
|-------------------------|-------------------------|
|-------------------------|-------------------------|


   E  E  E  E  E  E  E  E    E   E  E  E  H
|----14-15----14-15----14-|-----14-15----15---------|
|-13-------13-------13----|-15--------15------------|
|-------------------------|-------------------------|
|-------------------------|-------------------------|
|-------------------------|-------------------------|
|-------------------------|-------------------------|
|
|  W                         H.              S S E
|-------------------------|------------------x-x----|
|-------------------------|------------------x-x----|
|-------------------------|------------------x-x----|
|-------------------------|------------------x-x----|
|-------------------------|------------------x-x----|
|-------------------------|------------------x-x----|


    C5
     E    E    E    E    E    E    E    E
||--14---15---14---15---14---15---14---15---|
||o-----------------------------------------|
||------------------------------------------|
||------------------------------------------|
||o-----------------------------------------|
||------------------------------------------|
|
|    S S  S S  S S  S S  S S  S S  S S  S S
||------------------------------------------|
||o-----------------------------------------|
||---5-5--5-5--5-5--5-5--5-5--5-5--5-5--5-5-|
||---5-5--5-5--5-5--5-5--5-5--5-5--5-5--5-5-|
||o--3-3--3-3--3-3--3-3--3-3--3-3--3-3--3-3-|
||------------------------------------------|


  E5
   E    E    E    E    E    E    E    E
|------14--------14--------14--------14----|
|-12--------12--------12--------12---------|
|------------------------------------------|
|------------------------------------------|
|------------------------------------------|
|------------------------------------------|
|
|  S S  S S  S S  S S  S S  S S  S S  S S
|------------------------------------------|
|------------------------------------------|
|--9-9--9-9--9-9--9-9--9-9--9-9--9-9--9-9--|
|--9-9--9-9--9-9--9-9--9-9--9-9--9-9--9-9--|
|--7-7--7-7--7-7--7-7--7-7--7-7--7-7--7-7--|
|------------------------------------------|


  B5
   E    E    E    E    E    E    E    E
|------14--------14--------14--------14---|
|-12--------12--------12--------12--------|
|-----------------------------------------|
|-----------------------------------------|
|-----------------------------------------|
|-----------------------------------------|
|
|  S S  S S  S S  S S  S S  S S  S S  S S
|-----------------------------------------|
|-----------------------------------------|
|--4-4--4-4--4-4--4-4--4-4--4-4--4-4--4-4-|
|--4-4--4-4--4-4--4-4--4-4--4-4--4-4--4-4-|
|--2-2--2-2--2-2--2-2--2-2--2-2--2-2--2-2-|
|-----------------------------------------|


                           D5
   E    E    E    E    E    E    E    E
|------15--------15--------15--------15----||
|-12--------12--------12--------12--------o||
|------------------------------------------||
|------------------------------------------||
|-----------------------------------------o||
|------------------------------------------||
|
|  S S  S S  S S  S S  S S  S S  S S  S S
|------------------------------------------||
|-----------------------------------------o||
|--4-4--4-4--4-4--4-4--4-4--7-7--7-7--7-7--||
|--4-4--4-4--4-4--4-4--4-4--7-7--7-7--7-7--||
|--2-2--2-2--2-2--2-2--2-2--5-5--5-5--5-5-o||
|------------------------------------------||


  C5
   E    E    E    E    E    E    E    E
|-14---15---14---15---14---15---14---15---|
|-----------------------------------------|
|-----------------------------------------|
|-----------------------------------------|
|-----------------------------------------|
|-----------------------------------------|
|
|  S S  S S  S S  S S  S S  S S  S S  S S
|-----------------------------------------|
|-----------------------------------------|
|--5-5--5-5--5-5--5-5--5-5--5-5--5-5--5-5-|
|--5-5--5-5--5-5--5-5--5-5--5-5--5-5--5-5-|
|--3-3--3-3--3-3--3-3--3-3--3-3--3-3--3-3-|
|-----------------------------------------|


  D5
   E    E    E    E    H
|------14---15--------15---------------|
|-13-------------15--------------------|
|--------------------------------------|
|--------------------------------------|
|--------------------------------------|
|--------------------------------------|
|
|  S S  S S  S S  S S  S S S S S S S S
|--------------------------------------|
|--------------------------------------|
|--7-7--7-7--7-7--7-7--7-7-7-7-7-7-7-7-|
|--7-7--7-7--7-7--7-7--7-7-7-7-7-7-7-7-|
|--5-5--5-5--5-5--5-5--5-5-5-5-5-5-5-5-|
|--------------------------------------|


   Verse
    N.C.
     E    E   E   E   E   E   E E    E    E   E   E   E   E   E   E
||--------2---3-------2---3-----2-|-------2---3-------2---3-------2----|
||o--1------------1-----------1---|--0------------0-----------0--------|
||--------------------------------|------------------------------------|
||--------------------------------|------------------------------------|
||o-------------------------------|------------------------------------|
||--------------------------------|------------------------------------|
|
|    S S  S S S S S S S S S S E E    S S  S S S S S S S S S S S S S S
||--12p0-10p0-8p0-7p0-8p0-7p0-5-7-|-12p0-10p0-8p0-7p0-8p0-7p0-5p0-7p0--|
||o-------------------------------|------------------------------------|
||--------------------------------|------------------------------------|
||--------------------------------|------------------------------------|
||o-------------------------------|------------------------------------|
||--------------------------------|------------------------------------|


  N.C.
   E    E   E   E   E   E   E E    E  E E  Q    E E E
|-------2---3-------2---3-----2-|-----2-3-------2-3-2--||
|--1------------1-----------1---|-(0)-----(0)---------o||
|-------------------------------|----------------------||
|-------------------------------|--2-------2-----------||
|-------------------------------|---------------------o||
|-------------------------------|----------------------||
|
|  S S  S S S S S S S S S S E E    E  E E  E  E E E E
|-12p0-10p0-8p0-7p0-8p0-7p0-5-7-|--0--7-0--8--0-7-0-8--||
|-------------------------------|---------------------o||
|-------------------------------|----------------------||
|-------------------------------|----------------------||
|-------------------------------|---------------------o||
|-------------------------------|----------------------||


    C5                                E5
    Gtrs I, II
    S S S S S S S S S S S S S S S S   S S S S S S S S S S S S S S S S
||----------------------------------|----------------------------------|
||o---------------------------------|----------------------------------|
||--5-5-5-5-5-5-5-5-5-5-5-5-5-5-5-5-|-9-9-9-9-9-9-9-9-9-9-9-9-9-9-9-9--|
||--5-5-5-5-5-5-5-5-5-5-5-5-5-5-5-5-|-9-9-9-9-9-9-9-9-9-9-9-9-9-9-9-9--|
||o-3-3-3-3-3-3-3-3-3-3-3-3-3-3-3-3-|-7-7-7-7-7-7-7-7-7-7-7-7-7-7-7-7--|
||----------------------------------|----------------------------------|


  B5                                B5                  D5
  S S S S S S S S S S S S S S S S   S S S S S S S S S S S S S S S S
|---------------------------------|----------------------------------||
|---------------------------------|---------------------------------o||
|-4-4-4-4-4-4-4-4-4-4-4-4-4-4-4-4-|-4-4-4-4-4-4-4-4-4-4-7-7-7-7-7-7--||
|-4-4-4-4-4-4-4-4-4-4-4-4-4-4-4-4-|-4-4-4-4-4-4-4-4-4-4-7-7-7-7-7-7--||
|-2-2-2-2-2-2-2-2-2-2-2-2-2-2-2-2-|-2-2-2-2-2-2-2-2-2-2-5-5-5-5-5-5-o||
|---------------------------------|----------------------------------||


  C5                                D5
  S S S S S S S S S S S S S S S S   S S S S S S S S S S S S S S S S
|---------------------------------|---------------------------------|
|---------------------------------|---------------------------------|
|-5-5-5-5-5-5-5-5-5-5-5-5-5-5-5-5-|-7-7-7-7-7-7-7-7-7-7-7-7-7-7-7-7-|
|-5-5-5-5-5-5-5-5-5-5-5-5-5-5-5-5-|-7-7-7-7-7-7-7-7-7-7-7-7-7-7-7-7-|
|-3-3-3-3-3-3-3-3-3-3-3-3-3-3-3-3-|-5-5-5-5-5-5-5-5-5-5-5-5-5-5-5-5-|
|---------------------------------|---------------------------------|


   "This reception died in.."
      E5D5    E5            E5D5    E5
    Gtr I
    PM    PM|   PM--|     PM    PM|   PM|
    E E E S S E S S e E   E E E S S E S S S S E
||----------------------|-----------------------|
||o---------------------|-----------------------|
||----9s7-----9---------|---9s7-----------------|
||----9s7-----9---------|---9s7-----------------|
||o---7s5-----7-2-2-2---|---7s5-----2-----------|
||--0-----0-0---0-0-0---|-0-----0-0-0-0-0-0h1p0-|
|
|   Gtr II
|   PM    PM|   PM--|     PM    PM|   PM|
|   E E E S S E S S e E   E E E S S E S S S S E
||----------------------|-----------------------|
||o---------------------|-----------------------|
||----9s7-----9---------|---9s7-----------------|
||----9s7-----9---------|---9s7-----------------|
||o---7s5-----7-2-2-2---|---7s5-----2-----------|
||--0-----0-0---0-0-0---|-0-----0-0-0-0-0-0h1p0-|


    E5D5    E5          N.C.
  PM    PM|   PM--|
  E E E S S E S S e E   S S S  S  S  S  S  S  S  S  S  S  S  S  S  S
|---------------------|-----------------------------------------------||
|---------------------|----------------------------------------------o||
|---9s7-----9---------|-9-9-9-10-10-10-10-10-10-10-10-10-10-10-10-10--||
|---9s7-----9---------|-x-x-x--x--x--x--x--x--x--x--x--x--x--x--x--x--||
|---7s5-----7-2-2-2---|-7-7-7--8--8--8--8--8--8--8--8--8--8--8--8--8-o||
|-0-----0-0---0-0-0---|-----------------------------------------------||
|
| PM    PM|   PM--|
| E E E S S E S S e E   S S S  S  S  S  S  S  S  S  S  S  S  S  S  S
|---------------------|-----------------------------------------------||
|---------------------|----------------------------------------------o||
|---9s7-----9---------|-9-9-9-10-10-10--7--7--7--7--7--7--7--7--7--7--||
|---9s7-----9---------|-x-x-x--x--x--x--x--x--x--x--x--x--x--x--x--x--||
|---7s5-----7-2-2-2---|-7-7-7--8--8--8--5--5--5--5--5--5--5--5--5--5-o||
|-0-----0-0---0-0-0---|-----------------------------------------------||


      E5D5    E     F5      E5D5    E
    PM    PM|   PM|       PM    PM|   PM|
    E E E S S E S S  Q    E E E S S E S S S S E
||----------------------|-----------------------|
||o---------------------|-----------------------|
||----9s7-----------10--|---9s7-----------------|
||----9s7-----------10--|---9s7-----------------|
||o---7s5-----7------8--|---7s5-----7-----------|
||--0-----0-0-0-0-0-----|-0-----0-0-0-0-0-0h1p0-|
|
|   PM    PM|   PM|       PM    PM|   PM|
|   E E E S S E S S  Q    E E E S S E S S S S E
||----------------------|-----------------------|
||o---------------------|-----------------------|
||----9s7-----------10--|---9s7-----------------|
||----9s7-----------10--|---9s7-----------------|
||o---7s5-----7------8--|---7s5-----7-----------|
||--0-----0-0-0-0-0-----|-0-----0-0-0-0-0-0h1p0-|


                        1.
    E5D5    E     F5      E5D5
                       2/4
  PM    PM|   PM|       PM    PM|
  E E E S S E S S  Q    E E E S S
|---------------------|------------||
|---------------------|-----------o||
|---9s7-----------10--|---9s7------||
|---9s7-----------10--|---9s7------||
|---7s5-----7------8--|---7s5-----o||
|-0-----0-0-0-0-0-----|-0-----0-0--||
|
| PM    PM|   PM|       PM    PM|
| E E E S S E S S  Q    E E E S S
|---------------------|------------||
|---------------------|-----------o||
|---9s7-----------10--|---9s7------||
|---9s7-----------10--|---9s7------||
|---7s5-----7------8--|---7s5-----o||
|-0-----0-0-0-0-0-----|-0-----0-0--||


  2.
  N.C.
 4/4
  S S S  S  S  S  S  S  S  S  S  S  S  S  S  S
|----------------------------------------------|
|----------------------------------------------|
|-9-9-9-10-10-10-10-10-10-10-10-10-10-10-10-10-|
|-x-x-x--x--x--x--x--x--x--x--x--x--x--x--x--x-|
|-7-7-7--8--8--8--8--8--8--8--8--8--8--8--8--8-|
|----------------------------------------------|
|
| S S S  S  S  S  S  S  S  S  S  S  S  S  S  S
|----------------------------------------------|
|----------------------------------------------|
|-9-9-9-10-10-10--7--7--7--7--7--7--7--7--7--7-|
|-x-x-x--x--x--x--x--x--x--x--x--x--x--x--x--x-|
|-7-7-7--8--8--8--5--5--5--5--5--5--5--5--5--5-|
|----------------------------------------------|


   Verse
    C5                                D5
    Gtrs I, II
    S S S S S S S S S S S S S S S S   S S S S S S S S S S S S S S S S
||----------------------------------|----------------------------------|
||o---------------------------------|----------------------------------|
||--5-5-5-5-5-5-5-5-5-5-5-5-5-5-5-5-|-7-7-7-7-7-7-7-7-7-7-7-7-7-7-7-7--|
||--5-5-5-5-5-5-5-5-5-5-5-5-5-5-5-5-|-7-7-7-7-7-7-7-7-7-7-7-7-7-7-7-7--|
||o-3-3-3-3-3-3-3-3-3-3-3-3-3-3-3-3-|-5-5-5-5-5-5-5-5-5-5-5-5-5-5-5-5--|
||----------------------------------|----------------------------------|


  A5                                                    B5
  S S S S S S S S S S S S S S S S   S S S S S S S S S S S S S S S S
|---------------------------------|----------------------------------||
|---------------------------------|---------------------------------o||
|-2-2-2-2-2-2-2-2-2-2-2-2-2-2-2-2-|-2-2-2-2-2-2-2-2-2-2-4-4-4-4-4-4--||
|-2-2-2-2-2-2-2-2-2-2-2-2-2-2-2-2-|-2-2-2-2-2-2-2-2-2-2-4-4-4-4-4-4--||
|-0-0-0-0-0-0-0-0-0-0-0-0-0-0-0-0-|-0-0-0-0-0-0-0-0-0-0-2-2-2-2-2-2-o||
|---------------------------------|----------------------------------||


    F5                                    G5
    Gtr I
     S S  S S S S S S S S S S S S  S  S    S S  S S S S S S S S S S S S  S  S
||--12p0-10p0-8p0-7p0-8p0-7p0-5p0--7p=0-|-12p0-10p0-8p0-7p0-8p0-7p0-5p0--7p=0--|
||o-------------------------------------|--------------------------------------|
||--------------------------------------|--------------------------------------|
||--------------------------------------|--------------------------------------|
||o-------------------------------------|--------------------------------------|
||--------------------------------------|--------------------------------------|
|
|   Gtr II
|    PM-----|     PM--------|              PM-----|     PM--------|
|    S S  S S E   S S S S S S E    E       S S  S S E   S S S S S S E    E
||--------------------------------------|--------------------------------------|
||o-------------------------------------|--------------------------------------|
||--------------------------------------|--------------------------------------|
||------------3---------------3---(3)---|-----------5---------------5---(5)----|
||o--3-3--3-3-3---3-3-3-3-3-3-3----3----|--5-5--5-5-5---5-5-5-5-5-5-5----5-----|
||---1-1--1-1-1---1-1-1-1-1-1-1----1----|--3-3--3-3-3---3-3-3-3-3-3-3----3-----|


  1.
  A5                                                      G5
   S S  S S S S S S S S S S S S S S   E   E   E E   E   E E   E
|-12p0-10p0-8p0-7p0-8p0-7p0-5p0-7p0-|-0---7---0-8---0---7-0---8--||
|-----------------------------------|---------------------------o||
|-----------------------------------|----------------------------||
|-----------------------------------|----------------------------||
|-----------------------------------|---------------------------o||
|-----------------------------------|----------------------------||
|
|  PM-----|     PM----|     PM|       PM----|   PM----|   PM|
|  S S  S S E   S S S S E   S S E     S S S S E S S S S E S S E
|-----------------------------------|----------------------------||
|-----------------------------------|---------------------------o||
|-----------------------------------|----------------------------||
|-----------7-----------7-------7---|---------7---------7-----5--||
|--7-7--7-7-7---7-7-7-7-7---7-7-7---|-7-7-7-7-7-7-7-7-7-7-5-5-5-o||
|--5-5--5-5-5---5-5-5-5-5---5-5-5---|-5-5-5-5-5-5-5-5-5-5-3-3-3--||


  2.
  A5
   S S  S S S S S S S S S S S S S S   E   E   E E E Q.
|-12p0-10p0-8p0-7p0-8p0-7p0-5p0-7p0-|-0---7---0-8-8------|
|-----------------------------------|--------------------|
|-----------------------------------|--------------------|
|-----------------------------------|--------------------|
|-----------------------------------|--------------------|
|-----------------------------------|--------------------|
|
|  PM-----|     PM----|     PM|       PM----|   PM
|  S S  S S E   S S S S E   S S E     S S S S E E E Q.
|-----------------------------------|--------------------|
|-----------------------------------|--------------------|
|-----------------------------------|--------------------|
|-----------7-----------7-------7---|---------7---7------|
|--7-7--7-7-7---7-7-7-7-7---7-7-7---|-7-7-7-7-7-7-7------|
|--5-5--5-5-5---5-5-5-5-5---5-5-5---|-5-5-5-5-5-5-5------|


 Interlude
  Am                              G
  Gtr III
   E  S  S  E  S  E  S  E  E  E   E S S E S E S E E E
|--8--8--8--8--8--8--8--8--8--8-|-7-7-7-7-7-7-7-7-7-7-|
|-10-10-10-10-10-10-10-10-10-10-|-8-8-8-8-8-8-8-8-8-8-|
|-------------------------------|---------------------|
|-------------------------------|---------------------|
|-------------------------------|---------------------|
|-------------------------------|---------------------|


  E5                    C/E     Esus4
  E S S E S E S E E E   E S S E S E S E E E
|-7-7-7-7-7-7-7-7-7-7-|-8-8-8-8-5-5-5-5-5-5-|
|-5-5-5-5-5-5-5-5-5-5-|-5-5-5-5-5-5-5-5-5-5-|
|---------------------|---------------------|
|---------------------|---------------------|
|---------------------|---------------------|
|---------------------|---------------------|


    Am                                  G
     E   S  S   E  S  E  S  E  E   E    E  S S  E  S E S E E   E
||---8---8--8---8--8--8--8--8--8---8--|-7--7-7--7--7-7-7-7-7---7--|
||o-10--10-10--10-10-10-10-10-10--10--|-8--8-8--8--8-8-8-8-8---8--|
||------------------------------------|---------------------------|
||------------------------------------|---------------------------|
||o-----------------------------------|---------------------------|
||------------------------------------|---------------------------|
|
|   Gtr IV
|    E.     E.     H              +E    E.   E.    H          +E
||----------------12-------------(12)-|-----------10---------(10)-|
||o---------8-------------------------|------8--------------------|
||---9--------------------------------|-9-------------------------|
||------------------------------------|---------------------------|
||o-----------------------------------|---------------------------|
||------------------------------------|---------------------------|


  E5                        C/E       Esus4
  E  S S  E S E S E E  E    E  S S  E S E S E E  E
|-7--7-7--7-7-7-7-7-7--7--|-8--8-8--8-5-5-5-5-5--5---||
|-5--5-5--5-5-5-5-5-5--5--|-5--5-5--5-5-5-5-5-5--5--o||
|-------------------------|--------------------------||
|-------------------------|--------------------------||
|-------------------------|-------------------------o||
|-------------------------|--------------------------||
|
| E.   E.   H         +E    E.   E.   H         +E
|-----------8---------(8)-|-----------7---------(7)--||
|------8------------------|------8------------------o||
|-9-----------------------|-9------------------------||
|-------------------------|--------------------------||
|-------------------------|-------------------------o||
|-------------------------|--------------------------||


  Am                                 C/E
   E   S  S  E  S  E    S  E  E  E     E  S S  E S E   S  E E  E
|--8---8--8--8--8--8----8--8--8--8-|---8--8-8--8-8-8---8--8-8--8-|
|-10--10-10-10-10-10---10-10-10-10-|---5--5-5--5-5-5---5--5-5--5-|
|----------------------------------|-----------------------------|
|----------------------------------|-----------------------------|
|----------------------------------|-----------------------------|
|----------------------------------|-----------------------------|
|
| +E   E     E  E    E     E  E  E    +E  E    E E   E    E E  E
|-(7)----------------7-------------|-----------------7-----------|
|-----------10------------10----10-|-(10)-----10---------10---10-|
|------9--------9-------------9----|------9------9----------9----|
|----------------------------------|-----------------------------|
|----------------------------------|-----------------------------|
|----------------------------------|-----------------------------|


  Asus4                               F/A              A5
    E   S  S  E  S  E    S  E  E  E     E   S  S  E  S  E    S  E  E  E
|--10--10-10-10-10-10---10-10-10-10-|--13--13-13-13-13-12---12-12-12-12-|
|--10--10-10-10-10-10---10-10-10-10-|--10--10-10-10-10-10---10-10-10-10-|
|-----------------------------------|-----------------------------------|
|-----------------------------------|-----------------------------------|
|-----------------------------------|-----------------------------------|
|-----------------------------------|-----------------------------------|
|
|  +E   E     E  E    E     E  E  E    +E   E     E  E    E     E  E  E
|---------------------7-------------|---------------------7-------------|
|-(10)-------10------------10----10-|-(10)-------10------------10----10-|
|-------9--------9-------------9----|-------9--------9-------------9----|
|-----------------------------------|-----------------------------------|
|-----------------------------------|-----------------------------------|
|-----------------------------------|-----------------------------------|


  Asus4
    W                      +W
|--10-------------------|-(10)------------------|
|--10-------------------|-(10)------------------|
|-----------------------|-----------------------|
|-----------------------|-----------------------|
|-----------------------|-----------------------|
|-----------------------|-----------------------|
|
|  +E   E E  E E E  E E    +E   E E  E E E  E E
|-----------------------|-----------------------|
|-(10)---------0--------|--------------0--------|
|---------9------9----9-|--(9)----9------9----9-|
|------10---10-----10---|------10---10-----10---|
|-----------------------|-----------------------|
|-----------------------|-----------------------|
|
| Gtr V
|   W                       W
|-----------------------|-----------------------|
|-----------------------|-----------------------|
|--10-------------------|--12-------------------|
|-----------------------|-----------------------|
|---8-------------------|--10-------------------|
|-----------------------|-----------------------|


  N.C.
  Gtr IV
  E E E E E E E E    E  E E E E E E E
|-----8---7-------|-------8---7-------|
|-----------------|-------------------|
|---5---5---5---5-|-----5---5---5---5-|
|-7-----------7---|--7------------7---|
|-----------------|-------------------|
|-----------------|-------------------|
|
| Gtr V
| W                 +W
|-----------------|-------------------|
|-----------------|-------------------|
|-----------------|-------------------|
|-7---------------|-(7)---------------|
|-----------------|-------------------|
|-5---------------|-(5)---------------|


  N.C.
  +E   E E  E E E  E E   +E   E E  E E E  E E
|----------------------|----------------------|
|-------------0--------|-------------0--------|
|-(5)----9------9----9-|-(9)----9------9----9-|
|-----10---10-----10---|-----10---10-----10---|
|----------------------|----------------------|
|----------------------|----------------------|
|
|  W                      W
|----------------------|----------------------|
|----------------------|----------------------|
|-10-------------------|-12-------------------|
|----------------------|----------------------|
|--8-------------------|-10-------------------|
|----------------------|----------------------|


  N.C.
  E E E E E E E E    E  E E E E E E E
|-----8---7-------|-------8---7-------|
|-----------------|-------------------|
|---5---5---5---5-|-----5---5---5---5-|
|-7-----------7---|--7------------7---|
|-----------------|-------------------|
|-----------------|-------------------|
|
| W                 +W
|-----------------|-------------------|
|-----------------|-------------------|
|-----------------|-------------------|
|-7---------------|-(7)---------------|
|-----------------|-------------------|
|-5---------------|-(5)---------------|


  A5
  +E   E E  E E E  E E   +E   E E  E E E  E E
|----------------------|----------------------|
|-------------0--------|-------------0--------|
|-(5)----9------9----9-|-(9)----9------9----9-|
|-----10---10-----10---|-----10---10-----10---|
|----------------------|----------------------|
|----------------------|----------------------|
|
|  W                      W
|----------------------|----------------------|
|----------------------|----------------------|
|-10-------------------|-12-------------------|
|----------------------|----------------------|
|--8-------------------|-10-------------------|
|----------------------|----------------------|
|
| Gtr III
|  PM---------------------------------------|
|  E   E E  E E E  E E    E   E E  E E E  E E
|----------------------|----------------------|
|----------------------|----------------------|
|----------------------|----------------------|
|----------------------|----------------------|
|--7---7-7--7-7-7--7-7-|--7---7-7--7-7-7--7-7-|
|--5---5-5--5-5-5--5-5-|--5---5-5--5-5-5--5-5-|


  A5
  E E E E E E E E    E  E E E E E E E
|-----8---7-------|-------8---7-------|
|-----------------|-------------------|
|---5---5---5---5-|-----5---5---5---5-|
|-7-----------7---|--7------------7---|
|-----------------|-------------------|
|-----------------|-------------------|
|
| W                 +W
|-----------------|-------------------|
|-----------------|-------------------|
|-----------------|-------------------|
|-7---------------|-(7)---------------|
|-----------------|-------------------|
|-5---------------|-(5)---------------|
|
| PM--------------------------------|
| E E E E E E E E    E  E E E E E E E
|-----------------|-------------------|
|-----------------|-------------------|
|-----------------|-------------------|
|-----------------|-------------------|
|-7-7-7-7-7-7-7-7-|--7--7-7-7-7-7-7-7-|
|-5-5-5-5-5-5-5-5-|--5--5-5-5-5-5-5-5-|


  A5
  +E   E E  E E E  E E   +E   E E  E E E  E E
|----------------------|----------------------|
|-------------0--------|-------------0--------|
|-(5)----9------9----9-|-(9)----9------9----9-|
|-----10---10-----10---|-----10---10-----10---|
|----------------------|----------------------|
|----------------------|----------------------|
|
|  W                      W
|----------------------|----------------------|
|----------------------|----------------------|
|-10-------------------|-12-------------------|
|----------------------|----------------------|
|--8-------------------|-10-------------------|
|----------------------|----------------------|
|
|  PM---------------------------------------|
|  E   E E  E E E  E E    E   E E  E E E  E E
|----------------------|----------------------|
|----------------------|----------------------|
|----------------------|----------------------|
|----------------------|----------------------|
|--7---7-7--7-7-7--7-7-|--7---7-7--7-7-7--7-7-|
|--5---5-5--5-5-5--5-5-|--5---5-5--5-5-5--5-5-|


  N.C.
                       >
   E E E E E E E E    +W
|------8---7-----5-|--(5)----|
|------------------|---------|
|----5---5---5-----|---------|
|--7-----------7---|---------|
|------------------|---------|
|------------------|---------|
|
|                      >
|  W                  +W
|------------------|---------|
|------------------|---------|
|-14---------------|-(14)----|
|------------------|---------|
|-12---------------|-(12)----|
|------------------|---------|


 "The scalpel carves..."
  F5
  Gtr I
    PM--------------------------------|
  E E E E E E E E    E   E   E   E  E E  E  E
|-----------------|---------------------------|
|-----------------|---------------------------|
|-----------------|---------------------------|
|-3---------------|-(3)-(3)-(3)-(3)-3-3--3--3-|
|-3-3-3-3-3-3-3-3-|--3---3---3---3--3-3--3--3-|
|-1-1-1-1-1-1-1-1-|--1---1---1---1--1-1--1--1-|
|
| Gtr II
|   PM--------------------------------|
| E E E E E E E E    E   E   E   E  E E  Q
|-----------------|---------------------------|
|-----------------|---------------------------|
|-----------------|---------------------------|
|-3---------------|-(3)-(3)-(3)-(3)-3-3-------|
|-3-3-3-3-3-3-3-3-|--3---3---3---3--3-3-15\---|
|-1-1-1-1-1-1-1-1-|--1---1---1---1--1-1-13\---|


    E5    C5E5        D5E5    F5
    E E E E E E E E   E E E E E E E E  3x
||------------------|------------------||
||o-------0-0-0-----|-0-0-0-0---------o||
||--------5-5-5-----|-4-4-4-4----------||
||--2-2-2-------2-2-|---------3-3-3-3--||
||o-2-2-2-------2-2-|---------3-3-3-3-o||
||--0-0-0-------0-0-|---------1-1-1-1--||
|
|   E E E E E E E E   E E E E E E E E  3x
||------------------|------------------||
||o-----------------|-----------------o||
||--------5S9-9-----|-7S9-9-9----------||
||--2-2-2-5S9-9-2-2-|-7S9-9-9-3-3-3-3--||
||o-2-2-2-3S7-7-2-2-|-5S7-7-7-3-3-3-3-o||
||--0-0-0-------0-0-|---------1-1-1-1--||


  G5
                                         <
    PM--------------------------------|
  E E E E E E E E    E   E   E   E  E E  Q
|-----------------|---------------------<5>---|
|-----------------|---------------------------|
|-----------------|---------------------------|
|-5---------------|-(5)-(5)-(5)-(5)-5-5-------|
|-5-5-5-5-5-5-5-5-|--5---5---5---5--5-5-------|
|-3-3-3-3-3-3-3-3-|--3---3---3---3--3-3-------|
|
|   PM--------------------------------|
| E E E E E E E E    E   E   E   E  E E  E  E
|-----------------|---------------------------|
|-----------------|---------------------------|
|-----------------|---------------------------|
|-5---------------|-(5)-(5)-(5)-(5)-5-5--5--5-|
|-5-5-5-5-5-5-5-5-|--5---5---5---5--5-5--5--5-|
|-3-3-3-3-3-3-3-3-|--3---3---3---3--3-3--3--3-|


    A5    C5E5  A5    D5E5    F5
    E E E E E E E E   E E E E E E E E  3x
||------------------|------------------||
||o-------0-0-0-----|-0-0-0-0---------o||
||--------5-5-5-----|-4-4-4-4----------||
||--7-7-7-------7-7-|---------3-3-3-3--||
||o-7-7-7-------7-7-|---------3-3-3-3-o||
||--5-5-5-------5-5-|---------1-1-1-1--||
|
|   E E E E E E E E   E E E E E E E E  3x
||------------------|------------------||
||o-----------------|-----------------o||
||--------5S9-9-----|-7S9-9-9----------||
||--7-7-7-5S9-9-7-7-|-7S9-9-9-3-3-3-3--||
||o-7-7-7-3S7-7-7-7-|-5S7-7-7-3-3-3-3-o||
||--5-5-5-------5-5-|---------1-1-1-1--||


  G5
    PM----------|
  E E E E E E E E    E   E   E   E  E E E E
|-----------------|-------------------------|
|-----------------|------0-------0----0---0-|
|-----------------|--5-------5------5---5---|
|-5---------------|-------------------------|
|-5-5-5-5-5-5-5-5-|-------------------------|
|-3-3-3-3-3-3-3-3-|-------------------------|
|
|   PM--------------------------------|
| E E E E E E E E    E   E   E   E  E E E E
|-----------------|-------------------------|
|-----------------|-------------------------|
|-----------------|-------------------------|
|-5---------------|-(5)-(5)-(5)-(5)-5-5-5-5-|
|-5-5-5-5-5-5-5-5-|--5---5---5---5--5-5-5-5-|
|-3-3-3-3-3-3-3-3-|--3---3---3---3--3-3-3-3-|


 Outro
  A5                                  G5
  W                 E E E E E E E E   W                 E E E E E E E E
|-----------------|-----------------|-----------------|-----------------|
|-----------------|---0---0---0---0-|-----------------|---0---0---0---0-|
|-----------------|-5---5---5---5---|-----------------|-5---5---5---5---|
|-----------------|-----------------|-----------------|-----------------|
|-----------------|-----------------|-----------------|-----------------|
|-----------------|-----------------|-----------------|-----------------|
|
| PM------------------------------------------------------------------|
| E E E E E E E E   E E E E E E E E   E E E E E E E E   E E E E E E E E
|-----------------|-----------------|-----------------|-----------------|
|-----------------|-----------------|-----------------|-----------------|
|-----------------|-----------------|-----------------|-----------------|
|-----------------|-----------------|-----------------|-----------------|
|-7-7-7-7-7-7-7-7-|-7-7-7-7-7-7-7-7-|-5-5-5-5-5-5-5-5-|-5-5-5-5-5-5-5-5-|
|-5-5-5-5-5-5-5-5-|-5-5-5-5-5-5-5-5-|-3-3-3-3-3-3-3-3-|-3-3-3-3-3-3-3-3-|


  F5
  Gtr III
   E  E  E  E  E  E  E  E    E   E  E  E  E  E  E  E
|----14----15----14----15-|-----14----15----14----15-|
|-13----13----13----13----|-13-----13----13----13----|
|-------------------------|--------------------------|
|-------------------------|--------------------------|
|-------------------------|--------------------------|
|-------------------------|--------------------------|
|
|  W                        +W
|-------------------------|--------------------------|
|-------------------------|--------------------------|
|-------------------------|--------------------------|
|-------------------------|--------------------------|
|--3----------------------|-(3)----------------------|
|--1----------------------|-(1)----------------------|


   E   E  E  E  E  E  E  E    E   E  E  E  E  E  E  E
|-----14----15----14----15-|-----14----15----14----15-|
|-13-----13----13----13----|-13-----13----13----13----|
|--------------------------|--------------------------|
|--------------------------|--------------------------|
|--------------------------|--------------------------|
|--------------------------|--------------------------|
|
| +W                         +W
|--------------------------|--------------------------|
|--------------------------|--------------------------|
|--------------------------|--------------------------|
|--------------------------|--------------------------|
|-(3)----------------------|-(3)----------------------|
|-(1)----------------------|-(1)----------------------|


  F5
   E   E  E  E  E  E  E  E    E  E  E  E  E  E  E  E
|-----14----15----14----15-|----14----15----14----15-|
|-13-----13----13----13----|-13----13----13----13----|
|--------------------------|-------------------------|
|--------------------------|-------------------------|
|--------------------------|-------------------------|
|--------------------------|-------------------------|
|
| +W                          W
|--------------------------|-------------------------|
|--------------------------|-------------------------|
|--------------------------|-------------------------|
|--------------------------|-------------------------|
|-(3)----------------------|-------------------------|
|-(1)----------------------|-------------------------|


   E  E  E  E  E  E  E  E    E  E  E  E  E  E  E  E
|----14----15----14----15-|----14----15----14----15-|
|-13----13----13----13----|-13----13----13----13----|
|-------------------------|-------------------------|
|-------------------------|-------------------------|
|-------------------------|-------------------------|
|-------------------------|-------------------------|
|
|  W                         W
|-------------------------|-------------------------|
|-------------------------|-------------------------|
|-------------------------|-------------------------|
|-------------------------|-------------------------|
|-------------------------|-------------------------|
|-------------------------|-------------------------|


  N.C.
   E  E  E  E  E  E  E  E    E  E  E  E  E  E  E  E
|----14----15----14----15-|----14----15----14----15-*|
|-13----13----13----13----|-13----13----13----13----*|
|-------------------------|-------------------------*|
|-------------------------|-------------------------*|
|-------------------------|-------------------------*|
|-------------------------|-------------------------*|
|
|  W                         W
|-------------------------|-------------------------*|
|-------------------------|-------------------------*|
|-------------------------|-------------------------*|
|-------------------------|-------------------------*|
|-------------------------|-------------------------*|
|-------------------------|-------------------------*|





Comments


Popular Bled tabs & chords
His First Crush Bass Tabs
Ok But This Is How It Really Happened Bass Tabs
Red Wedding Bass Tabs
Smoke Breaks Bass Tabs
Smoke Breaks 2 Bass Tabs
Asleep On The Frontlines Intro Tabs
I Never Met Another Gemini 1 Tabs
Porcelain Hearts And Hammers For Teeth 1 Tabs
Red Wedding Tabs
Sound Of Sulfur 1 Tabs


Song lyrics



↑ Back to top | Tablatures and chords are parodies/interpretations of the original songs. You may use it for private study, scholarship, research or language learning purposes only
© 2014 AZChords.com Contact us | Privacy policy | DMCA | Add/correct tabs | Request tabs | Top 50 tabs