>
 >
I Never Met Another Gemini

I Never Met Another Gemini Bass Tabs

Bled - I Never Met Another Gemini chords, tabs, tablatures, lyrics

Guitar lessons | Add/correct | Request | Top 50 tabs Artists:  A B C D E F G H I J K L M N O P Q R S T U V W X Y Z 0-9

I Never Met Another Gemini Bass Tabs – Bled

CD, Sheet music, Poster

Do you like I Never Met Another Gemini? Share with your friends now
Bass TabsTabsTabs v2Tabs v3
I Never Met Another Gemini - The Bled

This tab is almost entirely correct, as unfortunetly i cannot guarantee
every single section, for the guitars seem to make an imbalance between
the bass and the 2 guitarists.  However, i can guarantee that at least
95% of the tab is correct, as i had other people check my tabbing.


Tune down a half step: Eb, Ab, Db, Gb (Eflat, Aflat, Dflat, Gflat)

(Guitar plays a nice little intro here)

(0:09)
Gb|--------------------------------|
Db|--------------------------------| X2
Ab|--------66666666----------------|
Eb|77777777--------6666666666666999|

(0:25)
Gb|----------------|
Db|----------------|X1
Ab|----------------|
Eb|7777777799999999|

(0:28)
Gb|----------------------------|
Db|----------------------------| X1
Ab|-------------------------4--|
Eb|77-7---66-6---77-7---2------|

(0:36)
Gb|------------------------|
Db|------------------------|
Ab|------------------------| X1
Eb|77-7---66-6---77-7--2---|

(0:44)
Gb|--------------------------------|
Db|--------------------------------| X2
Ab|--------66666666----------------|
Eb|77777777--------6666666666666999|

(1:00)
Gb|----------------|
Db|----------------|X1
Ab|----------------|
Eb|7777777799999999|

(1:04)
Gb|---------|
Db|---------|
Ab|6-5------|X1
Eb|---2444--|

(1:06)
Gb|---------|
Db|---------|
Ab|6-5----4-|X2
Eb|---2444--|

(1:10)
Gb|-------|
Db|-------|
Ab|6-7-4--|X1
Eb|-------|

(1:12)
Gb|---------|
Db|---------|
Ab|6-5------|X1
Eb|---2444--|

(1:14)
Gb|---------|
Db|---------|
Ab|6-5----4-|X2
Eb|---2444--|

(1:18)
Gb|-------|
Db|-------|
Ab|6-7-4--|X1
Eb|-------|

(1:20)
Gb|--------|
Db|--------|
Ab|6-7---4-|X7
Eb|---242--|

(1:32)
Gb|--------|
Db|--------|
Ab|66-7-4--|X1
Eb|--------|

(1:34)
Gb|--------------------------------|
Db|--------------------------------| X2
Ab|--------------------------------|
Eb|77777777999999994444444444444444|

(1:50)
Gb|--------------------------------|
Db|--------------------------------| X1
Ab|--------------------------------|
Eb|00000000222222224444444444444444|

(1:57)
Gb|-----------------------------|
Db|-----------------------------| X1
Ab|-----------------------------|
Eb|00000000222222224444444444444|

(Guitar fill)

(2:13)
Gb|--------------------|
Db|--------------------|
Ab|----6---2---4-21----|X2
Eb|4---------------24--|

(2:29)
Gb|------------------|
Db|------------------|
Ab|----6---4---7---7-|X1
Eb|4-----------------|

(2:40)
Gb|--------------|
Db|--------------|
Ab|--------------|X3
Eb|4----0----2---|

(3:04)

Gb|-----|
Db|-----|
Ab|-----|X1
Eb|4----|

(3:08)
Gb|-----------------|
Db|-----------------|
Ab|-----------------|X1
Eb|0000000000000000-|

(For this next part you'll need to find a fitting rhythm)

(3:12)
Gb|--------------|
Db|----------222-|
Ab|--------------|X3
Eb|00---00-------|

(3:23)
Gb|-----------------|
Db|-----------------|
Ab|-----------------|X1
Eb|2222222222222222-|

(3:27)
Gb|--------------|
Db|----------222-|
Ab|--------------|X3
Eb|00---00-------|

(3:39)
Gb|-----------------|
Db|-----------------|
Ab|-----------------|X1
Eb|2222222222222222-|

(3:43)
Gb|-----------------------------------|
Db|-----------------------------------|
Ab|-----------------------------------|
Eb|44444444444444442222222222222222-0-|

After this it's the lead guitar fading out with a similar line to the
intro, and there you have it.





Comments


Popular Bled tabs & chords
Ok But This Is How It Really Happened Bass Tabs
Spitshine Sonata Bass Tabs
Daylight Bombings Intro Tabs
I Never Met Another Gemini 2 Tabs
Last American Cowboy Intro 1 Tabs
Ok But This Is How It Really Happened Tabs
Porcelain Hearts And Hammers For Teeth Tabs
Porcelain Hearts And Hammers For Teeth Intro 1 Tabs
Sound Of Sulfur Tabs
Spitshine Sonata Tabs


Song lyrics



↑ Back to top | Tablatures and chords are parodies/interpretations of the original songs. You may use it for private study, scholarship, research or language learning purposes only
© 2014 AZChords.com Contact us | Privacy policy | DMCA | Add/correct tabs | Request tabs | Top 50 tabs