» » »

Black Eyed Peas, Let's Get Retarded Tabs (ver.1)

Artists:  A B C D E F G H I J K L M N O P Q R S T U V W X Y Z # 

Let's Get Retarded Tabs (ver.1)

Black Eyed Peas Tabs
Rating:
0/5 (0 votes)
Hard to play? Try these video lessons and learn fast.
                Awesome song, but there the full tabs for this song aren't here yet, so I though I'd 
it out myself. Have fun.

LETS GET RETARDED
BLACK EYED PEAS

INTRO
Let's Get Retarded, in here...

And the base keep runnin' runnin', and runnin', and runnin', and runnin', and
runnin', andrunnin', and runnin', and
runnin', and runnin', and runnin', and runnin', and runnin', and runnin', and runnin', 
runnin', and...

VERSE ONE
In this context, there's no disrespect, so, when I bust my rhyme, you break your necks.
We got five minutes for us to disconnect, from all intellect collect the rhythm effect.

e:--------------------------|
B:--------------------------|
G:--------------------------|    x1
D:-9--12--5--4--9--7--5--4--|
A:-9--12--5--4--9--7--5--4--|
E:-7--10--3--2--7--5--3--2--|

Obstacles are inefficient, follow
your intuition, free your inner soul and break away from tradition.
Coz when we beat out, girl it's pullin without. You wouldn't believe how we wow sh*t out.
Burn it till it's burned out. Turn it till it's turned out. Act up from north, west, east, south.

e:-----------------|
B:-----------------|
G:-----------------|    x3
D:-9-9-7-7-5-5-4-4-|
A:-9-9-7-7-5-5-4-4-|
E:-7-7-5-5-3-3-2-2-|


PRE-CHORUS
Everybody, everybody, let's get into it.
Get stupid.
Get retarded, get retarded, get retarded.
e:-------------|
B:-------------|
G:-------------|    x2
D:-9--12--5--4-|
A:-9--12--5--4-|
E:-7--10--3--2-|

CHORUS
Let's get retarded (ha), let's get retarded in here. Let's get retarded (ha), let's get 
in here.
Let's get retarded (ha), let's get retarded in here. Let's get retarded (ha), let's get 
in here.
Yeah.

e:-------------|
B:-------------|
G:-------------|   x4
D:-9--12--5--4-|
A:-9--12--5--4-|
E:-7--10--3--2-|

VERSE TWO
Lose control, of body and soul.
Don't move too fast, people, just take it slow.
Don't get ahead, just jump into it.
Ya'll here a body, two peices to it.

e:------------------------------------|
B:------------------------------------|
G:------------------------------------|
D:-9--12--5-5--4--9-9-12--5-5-4-4-----|    x1
A:-9--12--5-5--4--9-9-12--5-5-4-4-----|
E:-7--10--3-3--2--7-7-10--3-3-2-2-----|

Get stutted, get stupid.
You'll want me body people will walk you through it.
Step by step, like you're into new kid.
Inch by inch with the new solution.
Trench men hits, with no delusion.
The feeling's irresistible and that's how we movin'.

e:-------------------|
B:-------------------|
G:-------------------|    x3
D:-9-9-12-12-5-5-4-4-|
A:-9-9-12-12-5-5-4-4-|
E:-7-7-10-10-3-3-2-2-|

PRE-CHORUS

CHORUS

POST-CHORUS
Runnin' runnin', and runnin' runnin', and runnin' runnin', and runnin runnin' and... 
on ya'll let's get

...Oohhoo!
Aha, let's get oohhoo... in here (right now yeah.) Cookoo, aha, let's get, cookoo, in 
Cookoo, aha, let's get,
cookoo, in here...ow, ow, ow...

e:----------|
B:----------|
G:----------|
D:-9-5-12-4-|
A:-9-5-12-4-|
E:-7-3-10-2-|

ya, ya, ya, ya, ya, ya, ya, ya, ya, ya, ya...

e:-----------------|
B:-----------------|
G:-----------------|
D:-----------------|
A:-5555555577774444
E:-3333333355552222

Let's get ill, that's the deal.
At the gate, we'll bring the bud top drill. (Just)
Lose your mind this is the time,
Ya'll test this drill, Just and bang your spine. (Just)
Bob your head like epilepsy, up inside your club or in your bentley.
Get messy, loud and sick.
Ya'll mount past slow mo in another head trip. (So)
Come then now do not correct it, let's get pregnant let's get hectic.

e:----------------------------------------------------------|
B:----------------------------------------------------------|
G:-4-44-4-44-4-44-4-44-4-44-4-44-4-47-7-7-----4-47-7--------|
D:-4-44-4-44-4-44-4-44-4-44-4-44-4-47-7-75-54-4-47-75-5-4-4-|
A:-2-22-2-22-2-22-2-22-2-22-2-22-2-25-5-55-54-2-25-55-5-4-4-|
E:---------------------------------------3-32-------3-3-2-2-|

PRE-CHORUS

CHORUS

ya, ya, ya, ya, ya, ya, ya, ya, ya, ya, ya...

e:-----------------|
B:-----------------|
G:-----------------|
D:-----------------|
A:-5555555577774444
E:-3333333355552222

Yes, my pretties, I believe that's almost perfect. It's a really irregular song so they 
the guitar parts alot, but that's the basic song and it sounds right to me. Any 
            

comments powered by Disqus
↑ Back to top | Black Eyed Peas Tabs for Let's Get Retarded. Lyrics for acoustic guitar and electric guitar. Tablatures and chords are parodies/interpretations of the original songs. You may use it for private study, scholarship, research or language learning purposes only