» » »

Black Eyed Peas, Imma Be Tabs (ver.1)

Artists:  A B C D E F G H I J K L M N O P Q R S T U V W X Y Z # 

Imma Be Tabs (ver.1)

Black Eyed Peas Tabs
 Rating:
4/5 (4 votes)
Imma Be lessons Tabs too difficult? Try these video lessons and learn fast
                TUNING: Drop D

Obviously the real song doesn't have guitar in it, so
you're not allowed to whine about that. This is just 
an easy transcription if you want to rap/play unplugged.


INTRO:
e|--3-33333-3/8~~--8-8-8-8---|
B|--3-33333-3/8~~--8-8-8-8---|
G|--4-44444-4/9~~--9-9-9-9---|
D|--5-55555-5/10~--10101010--|
A|---------------------------|
D|---------------------------|


"IMMA BE" LOOP:
e|---------------------|
B|---------------------|
G|---------------------|
D|--333--333--3333333--|
A|--333--333--3333333--|
D|--333--333--3333333--|


[INTRO]


VERSE (FERGIE):
e|---------------|
B|---------------|
G|---------------|
D|--3-3-3-3-3/6--|
A|--3-3-3-3-3/6--|
D|--3-3-3-3-3/6--|


["IMMA BE" LOOP]

[INTRO]


VERSE (WILL):
e|---------------|
B|---------------|
G|---------------|
D|--3-3-3-3-3/6--|
A|--3-3-3-3-3/6--|
D|--3-3-3-3-3/6--|


INTERLUDE ("IMMA BE UP IN THE CLUB..."):
e|------------------------------|
B|------------------------------|
G|------------------------------|
D|--3--3--6--6--11--11--13--13--|
A|--3--3--6--6--11--11--13--13--|
D|--3--3--6--6--11--11--13--13--|


INTERLUDE PT. II:
e|----------------|
B|----------------|
G|--1--5--10--12--|
D|--3--6--8---10--|
A|--3--6--8---10--|
D|--3--6--8---10--|
    |             |  
    |__Arpeggios__|



VERSE (APL):
e|----------------|
B|----------------|
G|----------------|
D|--3--0-7-5-3----|
A|--3--0-7-5-3----|
D|--3--0-7-5-3-0--|


CHORUS:
e|-------------------------|
B|-------------------------|
G|-------------------------|
D|--0-1-3---3-5-6---0-6-5--|
A|--0-1-3---3-5-6---0-6-5--|
D|--0-1-3---3-5-6---0-6-5--|


The last verse doesn't really have any beat, you can stop playing there.
            
Submit corrections

comments powered by Disqus
↑ Back to top | Black Eyed Peas Tabs for Imma Be. Lyrics for acoustic guitar and electric guitar. Tablatures and chords are parodies/interpretations of the original songs. You may use it for private study, scholarship, research or language learning purposes only