» » »

Pump It Tabs (ver.1)

Artists:  A B C D E F G H I J K L M N O P Q R S T U V W X Y Z # 

Pump It Tabs (ver.1)

Black Eyed Peas
Rating:
0/5 (0 votes)

Hard to play? Try these video lessons and learn fast.
                

----------------------------------------------------|
----------------------------------------------------|
----------------------------------------------------|
----------------------------------------------------|
----------------------------------------------------|
-0-1-4-5-7-8-11-8-7---------------------------------|

                  /
repeat this bit x2 |

----------------------------------------------------|
----------------------------------------------------|
----------------------------------------------------|
----------------------------------------------------|
----------------------------------------------------|
-8-7-8-7-5-7-5-7-5-4-0-4.-7-5-7-5-4-4-1-4-1-0-1-0.--|

(repeat whole thing, then come here)

-0---0-1-2-3-4-5.-4-5-7.-7-8-11,-8-11-13.-----------|
---4------------------------------------------------|
----------------------------------------------------|
----------------------------------------------------|
----------------------------------------------------|
----------------------------------------------------|

-13-12-13-12-10-12-10-12-10-8-7.-8-7-8-7-5-7-5-4-5.-|
----------------------------------------------------|
----------------------------------------------------|
----------------------------------------------------|
----------------------------------------------------|
----------------------------------------------------|

play the numbers with a full stop next to them for 8 beats, and play the numbers with 
next to them for 4 beats.

-----------------------------------------------
Enjoy!
            
Hard to play? Try these video lessons and learn fast. | Correct




comments powered by Disqus
↑ Back to top | Tablatures and chords are parodies/interpretations of the original songs. You may use it for private study, scholarship, research or language learning purposes only