» » »

Black Eyed Peas, Don't Lie Bass tabs (ver.1)

Artists:  A B C D E F G H I J K L M N O P Q R S T U V W X Y Z # 

Don't Lie Bass tabs (ver.1)

Black Eyed Peas Tabs
Rating:
0/5 (0 votes)
Hard to play? Try these video lessons and learn fast.
                Song - Don't Lie
Artist - BEP

Please rate and comment

G------------------------------------|  |----------------------------------|  |
D----------11-9-11-9-----------------|3x|----------------------------------|3x|
A-----------------------------5--5-5-|  |---------------------------5--5-5-|  |
E--5--5-5-------------7--7-7---------|  |--5--5-5--9-7-9-7--7--7-7---------|  |

G------------------------------------|  |
D------------------------------------|1x|
A------------------------------------|  |
E--5--5-5--9-7-9-7--7--7-7-----------|  |

Nononono Baby, nononono don't lie...
G---------------------------------------------------------------------------|
D---------------------------------------------------------------------------|
A-------------------5--5-5--5-------------------------5--5-5--5-------------|
E--2--2-2--2--2-2--2---------5--5-5--2--2-2--2--2-2--2---------5--5-5-------|

What you gonna...
G----------------------------------------------------------------------------|
D----------------------------------------------------------------------------|
A--2--2-2--2--2-2--2/5--5-5--5--5-5--5------------------5--5-5--5------------|
E--------------------------------------2--2-2--2--2-2--2---------5--5-5--5/2-|
            

comments powered by Disqus
↑ Back to top | Black Eyed Peas Bass for Don't Lie. Lyrics for acoustic guitar and electric guitar. Tablatures and chords are parodies/interpretations of the original songs. You may use it for private study, scholarship, research or language learning purposes only