>
 >
Ladylike

Ladylike Bass Tabs

Big Wreck - Ladylike chords, tabs, tablatures, lyrics

Guitar lessons | Add/correct | Request | Top 50 tabs Artists:  A B C D E F G H I J K L M N O P Q R S T U V W X Y Z 0-9

Ladylike Bass Tabs – Big Wreck

CD, Sheet music, Poster

Do you like Ladylike? Share with your friends now
Bass TabsBass Tabs v2ChordsTabsUkulele
Artist - Big Wreck
Song - Ladylike
Album - The Pleasure and the Greed

Tune every string down half a step.

just play it through as written here, but watch repeat marks. 

The banjo plays a little bit then bass comes in.

(0:10)
Gb|---------------------------|
Db|---------------------------|  x 2
Ab|------------0---0--0--3--3-|
Eb|---------------------------|
Bb|-2--2----2-----------------|

(0:14)
Gb|---------------------------|
Db|---------------------------|
Ab|------------0---0--0--3--3-|
Eb|---------------------------|
Bb|-5--5----5-----------------|

(0:17)
Gb|------------------------|
Db|------------------------|
Ab|------------------------|
Eb|------------------------|
Bb|-5--5----5--4--4--4--4--|

(0:19)
Gb|---------------------------|
Db|---------------------------|  x 4
Ab|------------0---0--0--3--3-|
Eb|---------------------------|
Bb|-2--2----2-----------------|

(0:28)
Gb|---------------------------|
Db|---------------------------|
Ab|------------0---0--0--3--3-|
Eb|---------------------------|
Bb|-5--5----5-----------------|

(0:31)
Gb|------------------------|
Db|------------------------|
Ab|------------------------|
Eb|------------------------|
Bb|-5--5----5--4--4--4--4--|

(0:33)
Gb|---------------------------|
Db|---------------------------|  x 4
Ab|------------0---0--0--3--3-|
Eb|---------------------------|
Bb|-2--2----2-----------------|

(0:42)
Gb|---------------------------|
Db|---------------------------|
Ab|------------0---0--0--3--3-|
Eb|---------------------------|
Bb|-5--5----5-----------------|

(0:44)
Gb|------------------------|
Db|------------------------|
Ab|------------------------|
Eb|------------------------|
Bb|-5--5----5--4--4--4--4--|

(0:47)
Gb|---------------------------|
Db|---------------------------|  x 2
Ab|------------0---0--0--3--3-|
Eb|---------------------------|
Bb|-2--2----2-----------------|

(0:51)
Gb|-------------------------------------------------------------------------------|
Db|-------------------------------------------------------------------------------|
Ab|-1--1--1--0-0-1--0-0-1--0--2--2--2--0-0-2--0-0-2--0--3--3--3--0-0-3--0-0-3--0--|
Eb|-------------------------------------------------------------------------------|
Bb|-------------------------------------------------------------------------------|

(0:58)
Gb|----------------|
Db|--------2---3---|
Ab|4---5-----------|
Eb|----------------|
Bb|----------------|

(1:00)
Gb|------------------------------------------------------------------------------|
Db|------------------------------------------------------------------------------|
Ab|------------------------------------------------------------------------------|
Eb|------------------------------------------------------------------------------|
Bb|2---------1---1--1--2---------1---1--1--2---------1---1--1--2---------1---1--1|

REST

(1:14)
Gb|- ----------------------------|
Db|- ----------------------------|  
Ab|- -------------0---0--0--3--3-|
Eb|- ----------------------------|
Bb|14\-2--2----2-----------------|

(1:17)
Gb|---------------------------|
Db|---------------------------| 
Ab|------------0---0--0--3--3-|
Eb|---------------------------|
Bb|-2--2----2-----------------|

(1:19)
Gb|---------------------------|
Db|---------------------------|
Ab|------------0---0--0--3--3-|
Eb|---------------------------|
Bb|-5--5----5-----------------|

(1:21)
Gb|------------------------|
Db|------------------------|
Ab|------------------------|
Eb|------------------------|
Bb|-5--5----5--4--4--4--4--|

(1:24)
Gb|---------------------------|
Db|---------------------------|  x 4 
Ab|------------0---0--0--3--3-|
Eb|---------------------------|
Bb|-2--2----2-----------------|

(1:33)
Gb|---------------------------|
Db|---------------------------|
Ab|------------0---0--0--3--3-|
Eb|---------------------------|
Bb|-5--5----5-----------------|

(1:35)
Gb|------------------------|
Db|------------------------|
Ab|------------------------|
Eb|------------------------|
Bb|-5--5----5--4--4--4--4--|

(1:38)
Gb|---------------------------|
Db|---------------------------|  x 2
Ab|------------0---0--0--3--3-|
Eb|---------------------------|
Bb|-2--2----2-----------------|

(1:42)
Gb|-------------------------------------------------------------------------------|
Db|-------------------------------------------------------------------------------|
Ab|-1--1--1--0-0-1--0-0-1--0--2--2--2--0-0-2--0-0-2--0--3--3--3--0-0-3--0-0-3--0--|
Eb|-------------------------------------------------------------------------------|
Bb|-------------------------------------------------------------------------------|

(1:49)
Gb|----------------|
Db|--------2---3---|
Ab|4---5-----------|
Eb|----------------|
Bb|----------------|

(1:51)
Gb|--------------------------------------------------|
Db|--------------------------------------------------|
Ab|--------------------------------------------------|
Eb|--------------------------------------------------|
Bb|2---------1---1--1--2-------------------2---------|

(1:59)
Gb|12-12p11-- -11-11p10-- -10-10p9-----|
Db|- -- -- -11-- -- -- -10-- -- ---9\--|
Ab|- -- -- -- -- -- -- -- -- -- -------|
Eb|- -- -- -- -- -- -- -- -- -- -------|
Bb|- -- -- -- -- -- -- -- -- -- -------|

(2:00)
Gb|---------------------------|
Db|---------------------------|  x 4
Ab|------------0---0--0--3--3-|
Eb|---------------------------|
Bb|-2--2----2-----------------|

(2:10)
Gb|----------------------------------------------|
Db|----------------------------------------------|  
Ab|----------------------------------------------|
Eb|----------------------------------------------|
Bb|-7--7----7-7--7----7-7--7----7----5--5--4--4--|

(2:15)
Gb|---------------------------|
Db|---------------------------|  x 2
Ab|------------0---0--0--3--3-|
Eb|---------------------------|
Bb|-2--2----2-----------------|

(2:19)
Gb|-------------------------------------------|
Db|----------4h5------------------------------|
Ab|------5h7------3h5-------------------------|
Eb|-------------------------------------------|
Bb|-7-------------------7-7----7--5--5--4--4--|

(2:24)
Gb|---------------------------|
Db|---------------------------|  x 2
Ab|------------0---0--0--3--3-|
Eb|---------------------------|
Bb|-2--2----2-----------------|

(2:28)
Gb|--------------------------------------------|
Db|--------------------------------------------|
Ab|--------------------------------------------| Watch this one, timing is tricky.
Cb|--------------------------------------------|
Bb|-9--9----9--9--9----9--7--7----7--5--5--4--4|

(2:33)
Gb|---------------------------|
Db|---------------------------|
Ab|------------0---0--0--3--3-|
Eb|---------------------------|
Bb|-2--2----2-----------------|

(2:35)
Gb|------------------------------|
Db|------------------------------| 
Ab|------------0---0--0--3--3----|
Eb|------------------------------| 
Bb|-2--2----2------------------2-|

(2:42)
Gb|--------------------------------|
Db|--------------------------------|
Ab|-----------------0---0--0--3--3-|
Eb|--------------------------------|
Bb|-5/-\-5--5----5-----------------|

(2:45)
Gb|------------------------|
Db|------------------------|
Ab|------------------------|
Eb|------------------------|
Bb|-5--5----5--4--4--4--4--|

(2:47)
Gb|---------------------------|
Db|---------------------------|  x 4
Ab|------------0---0--0--3--3-|
Eb|---------------------------|
Bb|-2--2----2-----------------|

(2:56)
Gb|---------------------------|
Db|---------------------------|
Ab|------------0---0--0--3--3-|
Eb|---------------------------|
Bb|-5--5----5-----------------|

(2:58)
Gb|------------------------|
Db|------------------------|
Ab|------------------------|
Eb|------------------------|
Bb|-5--5----5--4--4--4--4--|

(3:01)
Gb|---------------------------|
Db|---------------------------|  x 2
Ab|------------0---0--0--3--3-|
Eb|---------------------------|
Bb|-2--2----2-----------------|

(3:05)
Gb|-------------------------------------------------------------------------------|
Db|-------------------------------------------------------------------------------|
Ab|-1--1--1--0-0-1--0-0-1--0--2--2--2--0-0-2--0-0-2--0--3--3--3--0-0-3--0-0-3--0--|
Eb|-------------------------------------------------------------------------------|
Bb|-------------------------------------------------------------------------------|

(3:12)
Gb|------------------------|
Db|------------------------|
Ab|4--4--4--4--4--4--4--4--|
Eb|------------------------|
Bb|------------------------|

(3:14)
Gb|-------------------------------------------------------------------------------|
Db|-------------------------------------------------------------------------------|
Ab|-1--1--1--0-0-1--0-0-1--0--2--2--2--0-0-2--0-0-2--0--3--3--3--3--3--3--3--3--3-|
Eb|-------------------------------------------------------------------------------|
Bb|-------------------------------------------------------------------------------|

(3:21)
Gb|----------------|
Db|--------2---3---|
Ab|4---5-----------|
Eb|----------------|
Bb|----------------|

(3:24)
Gb|---------------------------|
Db|---------------------------|  x 4
Ab|------------0---0--0--3--3-|
Eb|---------------------------|
Bb|-2--2----2-----------------|

(3:33)
Gb|----|
Db|----|
Ab|----|
Eb|----| 
Bb|-2--| Cut off quickly.





Comments


Popular Big Wreck tabs & chords
Ladylike 1 Bass Tabs
Albatross Tabs
Ladylike Tabs
Look What I've Found Tabs
That Song 1 Tabs
The Oaf Tabs
Undersold Tabs
West Virginia Tabs
Ladylike Ukulele
Under The Lighthouse Ukulele


Song lyrics



↑ Back to top | Tablatures and chords are parodies/interpretations of the original songs. You may use it for private study, scholarship, research or language learning purposes only
© 2014 AZChords.com Contact us | Privacy policy | DMCA | Add/correct tabs | Request tabs | Top 50 tabs