» » »

That Song Tabs (ver.1)

Artists:  A B C D E F G H I J K L M N O P Q R S T U V W X Y Z # 

That Song Tabs (ver.1)

Big Wreck
Rating:
2/5 (6 votes)

Tabs too difficult? Try these video lessons and learn fast.
                This is my basic tab of this new awesome song by a great Canadian band.
I wrote out the main parts you can hear. there's some "solo" parts i missed,
but it's late, so i might fill em in later.  They're not hard, so you can easily
hear them yourself.
Enjoy.  Standard tuning by the way people.

Intro/Verse  ("So i always get nostalgic...)
e-------------------------------------------------------------------
B-------------------------------------------------------------------
G-10-10-10-10-10-13-13-13-12-12-12/10-10-10-10-10-10-13-13-13-12-12-
D-------------------------------------------------------------------
A-------------------------------------------------------------------
E-------------------------------------------------------------------

e-------------------------------------------------------------------
B--------------------------------------------------------9--9--9--9-
G-12/5-5-5-6-5-6-8-8-8-6-6-6/5-5-5-6-5-6-8-8-8-6-6-6/5---10-10-10-10
D-------------------------------------------------------------------
A-------------------------------------------------------------------
E-------------------------------------------------------------------

e-------------------------------------------------------------------
B-9--13-13-13-11-11-11/9--9--9--9--9--9--13-13-13-11-11-11----------
G-10-13-13-13-12-12-12/10-10-10-10-10-10-13-13-13-12-12-12/5-5-5-6-5
D-------------------------------------------------------------------
A-------------------------------------------------------------------
E-------------------------------------------------------------------

e-------------------------------------------------------------------
B-------------------------------------------------------------------
G-6-8-8-8-6-6-6/5-5-5-6-5-6-8-8-8-6-6-6/5---------------------------
D-------------------------------------------------------------------
A-------------------------------------------------------------------
E-------------------------------------------------------------------
Just before you start to hit the 8th fret for the third time here at the end of the
verse it breaks into the next riff.

Pre-Chorus  (So when you go...)
e--------------------------4----4-----------------------------------
B--------------------------4----4-----------------------------------
G-x-x-x-x-x-x--6-----6-----5-5/-5-----------------------------------
D-x-x-x-x-x-x--6-----6-----6----6-----------------------------------
A-x-x-x-x-x-x--4-3b4-4-3b4-6----6-----------------------------------
E-x-x-x-x-x-x--------------4----4-----------------------------------


Chorus  (So you crank that song...)
e-------------------------------------------------------------------
B-------------------------------------------------------------------
G--10--8--10--6--10--13--10--8--10--6-------------------------------
D--10--8--10--6--10--13--10--8--10--6--let ring---------------------
A--8---6--8---4--8---11--8---6--8---4-------------------------------
E-------------------------------------------------------------------

Main Riff
e-------------------------------------------------------------------
B-------------------------------------------------------------------
G-------------------------------------------------------------------
D----5-3---5~-3----5-3---5~-3---5-3---5~-3---5-3---5~-3----5-3---5~-3
A--4-----4-------4------4-----4-----4------4-----4------------------
E--------------------------------------------------------4-----4----
And the notes you play on the D string continue.
Also, make sure you vibrate the strings (~) at that sign, it makes a huge difference.

Okay so those are the main parts of the song. just to give it a start, i know i made
some mistakes, but this is generally accurate. for now i'm dead tired, so enjoy.  I'll
maybe put up the rest later.
            
Tabs too difficult? Try these video lessons and learn fast.




comments powered by Disqus
↑ Back to top | Tablatures and chords are parodies/interpretations of the original songs. You may use it for private study, scholarship, research or language learning purposes only