» » »

Big Wreck, Still Holding Tabs (ver.1)

Artists:  A B C D E F G H I J K L M N O P Q R S T U V W X Y Z # 

Still Holding Tabs (ver.1)

Big Wreck Tabs
 Rating:
4/5 (4 votes)
Still Holding lessons Tabs too difficult? Try these video lessons and learn fast
                Big Wreck


Open D tuning: low to high (D,A,D,F#,A,D)


intro
-----------------------------------------------------------------------|
-----------------------------------------------------------------------|
------0-----0---------0-----0---------0-----0---------0-----0----------|
----0-----0---0-----0-----0---0-----0-----0---0-----0-----0---0--------|
--2-----4-------0---------------0-2-----4-------0---------------0------|
------------------4-----5-------------------------4-----5--------------|


pre-verses riff
----------------------------0-----0---|
--------------4b5r4p2p0---0-----0-----|
------0-----0-------------------------|
----0-----0---------------------------|
--2-----4-----------------------------|
------------------------4-----5-------|


verse riff
-------------------|
-------------------|
-------------------|
--4--6----0--4--5--|
--2--4----0--4--5--|
----------0--4--5--|


chorus riff (listen for timing of changes)
------------------------------------------------------|
------------------------------------------------------|
------------------------------------------------------|
--0----9----4--/7-7-7----------0--9--4--/7-7-7--------|
--0----9----4--/7-7-7----------0--9--4--/7-7-7--------|
--0----9----4--/7-7-7----------0--9--4--/7-7-7--------|


solo (both middle solo and outro solo)
----------------------------------------------------------|
-9-9-9-10-12-10-9--9-9-9-10-12-10-9--7-7-7-4-7--7-7-7-4-7-|
----------------------------------------------------------|
----------------------------------------------------------|
----------------------------------------------------------|
----------------------------------------------------------|

----------------------------------------------------------|
-9-9-9-10-12-10-9--9-9-9-10-12-10-9--7-7-7-4-7--7-7-7-4-7-|
----------------------------------------------------------|
----------------------------------------------------------|
----------------------------------------------------------|
----------------------------------------------------------|

----------------------------------------------------------|
-9-9-9-10-12-10-9--14-14-10-12-10-9--7-7-7-4-7--7-7-7-4-7-|
----------------------------------------------------------|
----------------------------------------------------------|
----------------------------------------------------------|
----------------------------------------------------------|

----------------------------------------------------------|
-9-9-9-10-12-10-9--14-14-10-12-10-9--7-7-7-4-7--7-7-7-4-7-|
----------------------------------------------------------|
----------------------------------------------------------|
----------------------------------------------------------|
----------------------------------------------------------|

these are all the basic parts...its not a hard song to figure out the placement of the riffs

enjoi
            
Submit corrections

comments powered by Disqus
↑ Back to top | Big Wreck Tabs for Still Holding. Lyrics for acoustic guitar and electric guitar. Tablatures and chords are parodies/interpretations of the original songs. You may use it for private study, scholarship, research or language learning purposes only