» » »

Big Wreck, Inhale Tabs (ver.2)

Artists:  A B C D E F G H I J K L M N O P Q R S T U V W X Y Z # 

Inhale Tabs (ver.2)

Big Wreck Tabs
Rating:
0/5 (0 votes)
Hard to play? Try these video lessons and learn fast.
                	
Tuning: Db (high)
        Bb
        Gb
        Db
        Gb
        B  (low)


I understand that there are other verions of this tab, 
but every tab I've seen so far has been wrong or 
incomplete in at least some way. In my opinion, this
is the best "inhale" tab out there...for now.

Intro
-3-3-2-0-----------------0-----0---------------
-------------------------3-----3---------------
--------------3-3s2p0-h2s4---2s4--2s4---~2~p0--
-----------------------------------------------
-----------------------------------------------
-----------------------------------------------

--------------------------------------|
-5-00-3\5~-----0-5--------------------|
-5-00-5\5~-----0-5-x-5-\-77--\--~4~---|
-5-00-3\5~-----0-5-x-3-\-55--\--~2~---|
------3----------x-x-3-\-55--\--~2~---|

(2 guitars play – heavy dist.)
--------------------|------|--------------------|--------|
--------------------|-5-0--|--------------------|--------|
--------------------|-5-0--|--------------------|--------|
---4----4----4----4-|-5-0--|---4----4----4----4-|--------|
-0-2--0-2--0-2--0-2-|------|-0-2--0-2--0-2--0-2-|---00-0-|
-0-2--0-2--0-2--0-2-|------|-0-2--0-2--0-2--0-2-|---00-0-|
								   (YEAH)


verse
----------------------------------
----------------------------------
--------------------------------0-
----------------------------------
-0--2-2-0--2-2-0--2-0-0---2/3-----
-0--2-2-0--2-2-0--2-0-0---2/3----- 
And all the pretty folks of plastic


---------------0-(let ring)---------0-(let ring)-
-------------------------------------------------
-------------------------------------------------
-0-h9----0---------------0-h9---0----------------
-0-h7----0-(let ring)----0-h7---0-(let ring)-----
-0-h7----0---------------0-h7---0----------------
 you'll see           ...we're blind 


Interlude                    
-12-14-12-15-12-14-12-15--- 
-12-13-12-15-12-13-12-15--- 
-12-12-12-12-12-12-12-12---   
-12-12-12-12-12-12-12-12---      
---------------------------      
---------------------------      
(Hey !)


Chorus
-----------------------------
-----------------------------
-0------0---2---3------------
-0------0---2---3---5---5-5--
-0------0---2---3---5---3-3--
--------------------5---3-3-- 
Oh, We all want to get  away 


-----------------------------|--3-2-0----------------
-----------------------------|----------0------------
-----5----------------0------|--------------3-2-0---- 
-xx--5----5-----7--7--0------|-----------------------
-xx--5----5-----5--5--0------|-----------------------
-xx-------3-----5--5---------|-----------------------
And walk that country mile


--------------------------------
--------------------------------
-0-----0----0---2-3---5---------
-0-----0----0---2-3---5---5-5---
-0-----0----0---2-3---5---3-3---
--------------------------3-3---
   If were all gonna fade away,


-------------------------------------|------|--------------------|------|
-------------------------------------|-5-0--|--------------------|------|
-5-----------------------------------|-5-0--|--------------------|------|
-5----5--7-----0----4----4----4----4-|-5-0--|---4----4----4----4-|------|
-5----3--7-----0--0-2--0-2--0-2--0-2-|------|-0-2--0-2--0-2--0-2-|-00-0-|
------3--5-----0--0-2--0-2--0-2--0-2-|------|-0-2--0-2--0-2--0-2-|-00-0-|
Lets go out in style.


--------------------|------|--------------------|--------|
--------------------|-5-0--|--------------------|--------|
--------------------|-5-0--|--------------------|--------|
---4----4----4----4-|-5-0--|---4----4----4----4-|--------|
-0-2--0-2--0-2--0-2-|------|-0-2--0-2--0-2--0-2-|---00-0-|
-0-2--0-2--0-2--0-2-|------|-0-2--0-2--0-2--0-2-|---00-0-|
        Change you mind and Inhale (x2)



Verse Lyrics:

YEAH, Cities crumble into forests 
The blacktops crack and float away
You Change your mind and inhale

And every now and then it’s broken
We’ll fix it all up in the end
Change your mind and inhale

With all the manufactured meat
Consumed in the most human needs, hey
we're overdue

And all the pretty folks of plastic
And all the lines are drawn so drastic
like airplane glue

We all wanna get away,
And walk that country mile.
If were all gonna fade away,
Let's go out in style.

You'll see, you're blind
You'll see, you're blind
Cant you see, you're blind
Can you see, you're blind

We all wannna get away,
Leave it all for a while.
If were all gonna fade away,
Lets go out in style

You'll wanna get away,
Walk that country mile.
If were all gonna fade away,
Let's go out in style.

Change your mind and inhale 
Change your mind and inhale
            

comments powered by Disqus
↑ Back to top | Big Wreck Tabs for Inhale. Lyrics for acoustic guitar and electric guitar. Tablatures and chords are parodies/interpretations of the original songs. You may use it for private study, scholarship, research or language learning purposes only