>
 >
Every Little Thing 1

Every Little Thing 1 Guitar Tabs

Beatles - Every Little Thing 1 chords, tabs, tablatures, lyrics

Guitar lessons | Add/correct | Request | Top 50 tabs Artists:  A B C D E F G H I J K L M N O P Q R S T U V W X Y Z 0-9

Every Little Thing 1 Guitar Tabs – Beatles

CD, Sheet music, Poster

Do you like Every Little Thing 1? Share with your friends now
Bass TabsChordsChords v2Chords v3Chords v4Chords v5TabsTabs v2Tabs v3
----------------------------------------------------------------------
      THE BEATLES - EVERY LITTLE THING (Lennon/McCartney) from BEATLES 
                    FOR SALE album. (Released on 4th December 1964.)
----------------------------------------------------------------------



When I'm walking beside her  
People tell me I'm lucky
Yes I know I'm a lucky guy

I remember the first time
I was lonely without her
Yes I'm thinking about her now

CHORUS
  
Every little thing she does                                        
She does for me, yeah                                 
And you know the things she does                              
She does for me, ooh

When I'm with her I'm happy
Just to know that she loves me     
Yes I know that she loves me now

There is one thing I'm sure of
I will love her forever
For I know love will never die


                                          (.

e|------- 0------ 0---0-- ----0--|0------ 0------ ------- -------|
B|--------5-------5---3-------2--|2-------3----------------------|
G|--------6---7---6---4-------2--|2-------4----------------------|
D|-------------------------------|-------------------------------|
A|-------------------------------|-------------------------------|
E|-------------------------------|-------------------------------|



  A                               D       E
e|0------ 0------ ----0-- 0---0--|2------ 0------ ----0-- 0---0--|
B|2-------2-----------2---2---2--|3-------0-----------0---0---0--|
G|2-------2-----------2---2---2--|2-------1-----------1---1---1--|
D|2-------2-----------2---2---2--|0-------2-----------2---2---2--|
A|0-------0-----------0---0---0--|--------2-----------2---2---2--|
E|-------------------------------|--------0-----------0---0---0--|
          When I'm walking    beside      her


  A                               G       D
e|0------ 0---0-- 0---0-- 0------|3------ 2------ ----2-- 2---0--|
B|2-------2---2---2---2---2------|3-------3-----------3---3---0--|  
G|2-------2---2---2---2---2------|0-------2-----------2---2------|
D|2-------2---2---2---2---2------|0-------0-----------0---0------|
A|0-------0---0---0---0---0------|2------------------------------|
E|-------------------------------|3------------------------------|
          People  tell me     I'm lucky


  Bm                              E               A
e|2------ 2------ 2------ 2------|0------ 0---0-- 0------ 0------|
B|3-------3-------3-------3------|0-------0---0---2-------2------|
G|4-------4-------4-------4------|1-------1---1---2-------2------|
D|4-------4-------4-------4------|2-------2---2---2-------2------|
A|2-------2-------2-------2------|2-------2---2---0-------0------|
E|-------------------------------|0-------0---0------------------|
          Yes, I  know I'm    a   lucky       guy


                                  D       E
e|0------ 0------ 0---0-- 0---0--|2------ 0------ 0---0-- 0---0--|
B|2-------2-------2---2---2---2--|3-------0-------0---0---0---0--|
G|2-------2-------2---2---2---2--|2-------1-------1---1---1---1--|
D|2-------2-------2---2---2---2--|0-------2-------2---2---2---2--|
A|0-------0-------0---0---0---0--|--------2-------3---2---2---2--|
E|-------------------------------|--------0-------0---0---0---0--|
          I remember          the first   time


  A                               G       D   
e|0------ 0------ 0------ 0------|3------ 2------ 2---2-- 2---0--|
B|2-------2-------2-------2------|3-------3-------3---3---3---0--|  
G|2-------2-------2-------2------|0-------2-------2---2---2------|
D|2-------2-------2-------2------|0-------0-------0---0---0------|
A|0-------0-------0-------0------|2------------------------------|
E|-------------------------------|3------------------------------|
          I was   lonely      without     her


  Bm                              E               A
e|2------ 2------ 2------ 2------|0------ 0---0-- 0------ 0---0--|
B|3-------3-------3-------3------|0-------0---0---2-------2---2--|
G|4-------4-------4-------4------|1-------1---1---2-------2---2--|
D|4-------4-------4-------4------|2-------2---2---2-------2---2--|
A|2-------2-------2-------2------|2-------2---2---0-------0---0--|
E|-------------------------------|0-------0---0------------------|
          Yes, I'm thinking   about  her      now


                                  G
e|0------ 0---0-- 0---0-- 0---0--|3------ 3------ 3------ 3------|
B|2-------2---2---2---2---2---2--|3-------3-------3-------3------|
G|2-------2---2---2---2---2---2--|0-------0-------0-------0------|
D|2-------2---2---2---2---2---2--|0-------0-------0-------0------|
A|0-------0---0---0---0---0---0--|2-------2-------2-------2------|
E|-------------------------------|3-------3-------3-------3------|
          Every   litlle          thing       she does
e|-9----- ------- ------- -------|-9-\7-- ----7-- ----7-- -------|
B|10-----------------------------|10-\8-------8-------8----------|
G|-9-----------------------------|-9-\7-------7-------7----------|
D|-------------------------------|-------------------------------|
A|-------------------------------|-------------------------------|
E|-------------------------------|-------------------------------|



                                  A
e|3---3-- 3------ 3------ 3------|0---0-- 0---0-- 0------ 0---0--|
B|3---3---3-------3-------3------|2---2---2---2---2-------2---2--|
G|0---0---0-------0-------0------|2---2---2---2---2-------2---2--|
D|0---0---0-------0-------0------|2---2---2---2---2-------2---2--|
A|2---2---2-------2-------2------|0---0---0---0---0-------0---0--|
E|3---3---3-------3-------3------|-------------------------------|
              She does    for     me,             yeah
e|------- ----7-- ------- -------|7-/-9-- ------- 7-/-9-- -------|
B|------------8------------------|8-/10-----------8-/10----------|
G|------------7------------------|7-/-9-----------7-/-9----------|
D|-------------------------------|-------------------------------|
A|-------------------------------|-------------------------------|
E|-------------------------------|-------------------------------|


                                  G
e|0---0-- 0------ 0------ 0------|3------ 3------ 3------ 3------|
B|2---2---2-------2-------2------|3-------3-------3-------3------|
G|2---2---2-------2-------2------|0-------0-------0-------0------|
D|2---2---2-------2-------2------|0-------0-------0-------0------|
A|0---0---0-------0-------0------|2-------2-------2-------2------|
E|-------------------------------|3-------3-------3-------3------|
          And you know    the     things     she  does
e|------- ------- ------- -------|-9-\7-- ----7-- ----7-- -------|
B|-------------------------------|10-\8-------8-------8----------|
G|-------------------------------|-9-\7-------7-------7----------|
D|-------------------------------|-------------------------------|
A|-------------------------------|-------------------------------|
E|-------------------------------|-------------------------------|



                                  A
e|3---3-- 3------ 3------ 3------|0------ 0---0-- 0------ 0---0--|
B|3---3---3-------3-------3------|2-------2---2---2-------2---2--|
G|0---0---0-------0-------0------|2-------2---2---2-------2---2--|
D|0---0---0-------0-------0------|2-------2---2---2-------2---2--|
A|2---2---2-------2-------2------|0-------0---0---0-------0---0--|
E|3---3---3-------3-------3------|-------------------------------|
              She does    for     me,             ooh
e|------- ----7-- ------- -------|7-/-9-- ------- 7-/-9-- -------|
B|------------8------------------|8-/10-----------8-/10----------|
G|------------7------------------|7-/-9-----------7-/-9----------|
D|-------------------------------|-------------------------------|
A|-------------------------------|-------------------------------|
E|-------------------------------|-------------------------------|



                                  D       E
e|0------ 0------ ----0-- 0---0--|2------ 0------ ----0-- 0---0--|
B|2-------2-----------2---2---2--|3-------0-----------0---0---0--|
G|2-------2-----------2---2---2--|2-------1-----------1---1---1--|
D|2-------2-----------2---2---2--|0-------2-----------2---2---2--|
A|0-------0-----------0---0---0--|--------2-----------2---2---2--|
E|-------------------------------|--------0-----------0---0---0--|
          When I'm with her   I'm happy        


  A                               G       D
e|0------ 0---0-- 0------ 0------|3------ 2------ ----2-- 2---2--|
B|2-------2---2---2-------2------|3-------3-----------3---3---3--|  
G|2-------2---2---2-------2------|0-------2-----------2---2---2--|
D|2-------2---2---2-------2------|0-------0-----------0---0---0--|
A|0-------0---0---0-------0------|2------------------------------|
E|-------------------------------|3------------------------------|
          Just to know that   she loves   me      


  Bm                              E               A
e|2------ 2------ 2------ 2------|0------ 0---0-- 0------ 0------|
B|3-------3-------3-------3------|0-------0---0---2-------2------|
G|4-------4-------4-------4------|1-------1---1---2-------2------|
D|4-------4-------4-------4------|2-------2---2---2-------2------|
A|2-------2-------2-------2------|2-------2---2---0-------0------|
E|-------------------------------|0-------0---0------------------|
          Yes, I  know that   she loves   me  now         


                                  D       E
e|0------ 0------ 0---0-- 0---0--|2------ 0------ ----0-- 0------|
B|2-------2-------2---2---2---2--|3-------0-----------0---0------|
G|2-------2-------2---2---2---2--|2-------1-----------1---1------|
D|2-------2-------2---2---2---2--|0-------2-----------2---2------|
A|0-------0-------0---0---0---0--|--------2-----------2---2------|
E|-------------------------------|--------0-----------0---0------|
          There is one thing  I'm sure    of       


  A                               G       D   
e|0------ 0------ 0------ 0------|3------ 2------ ----2-- 2---0--|
B|2-------2-------2-------2----0-|3-------3-----------3---3---0--|  
G|2-------2-------2-------2----0-|0-------2-----------2---2------|
D|2-------2-------2-------2----0-|0-------0-----------0---0------|
A|0-------0-------0-------0------|2------------------------------|
E|-------------------------------|3------------------------------|
          I will  love her    forever       


  Bm                              E               A
e|2------ 2------ 2------ 2------|0------ 0---0-- 0------ 0------|
B|3-------3-------3-------3------|0-------0---0---2-------2------|
G|4-------4-------4-------4------|1-------1---1---2-------2------|
D|4-------4-------4-------4------|2-------2---2---2-------2------|
A|2-------2-------2-------2------|2-------2---2---0-------0------|
E|-------------------------------|0-------0---0------------------|
          For I   know love  will never       die      


                                  G
e|0------ 0------ 0---0-- 0---0--|3------ 3------ 3------ 3------|
B|2-------2-------2---2---2---2--|3-------3-------3-------3------|
G|2-------2-------2---2---2---2--|0-------0-------0-------0------|
D|2-------2-------2---2---2---2--|0-------0-------0-------0------|
A|0-------0-------0---0---0---0--|2-------2-------2-------2------|
E|-------------------------------|3-------3-------3-------3------|
          Every   litlle          thing       she does
e|-9----- ------- ------- -------|-9-\7-- ----7-- ----7-- -------|
B|10-----------------------------|10-\8-------8-------8----------|
G|-9-----------------------------|-9-\7-------7-------7----------|
D|-------------------------------|-------------------------------|
A|-------------------------------|-------------------------------|
E|-------------------------------|-------------------------------|



                                  A
e|3---3-- 3------ 3------ 3------|0---0-- 0---0-- 0------ 0---0--|
B|3---3---3-------3-------3------|2---2---2---2---2-------2---2--|
G|0---0---0-------0-------0------|2---2---2---2---2-------2---2--|
D|0---0---0-------0-------0------|2---2---2---2---2-------2---2--|
A|2---2---2-------2-------2------|0---0---0---0---0-------0---0--|
E|3---3---3-------3-------3------|-------------------------------|
              She does    for     me,             yeah
e|7------ ----7-- ------- -------|7-/-9-- ------- 7-/-9-- -------|
B|8-----------8------------------|8-/10-----------8-/10----------|
G|7-----------7------------------|7-/-9-----------7-/-9----------|
D|-------------------------------|-------------------------------|
A|-------------------------------|-------------------------------|
E|-------------------------------|-------------------------------|



                                  G
e|0---0-- 0------ 0------ 0------|3------ 3------ 3------ 3------|
B|2---2---2-------2-------2------|3-------3-------3-------3------|
G|2---2---2-------2-------2------|0-------0-------0-------0------|
D|2---2---2-------2-------2------|0-------0-------0-------0------|
A|0---0---0-------0-------0------|2-------2-------2-------2------|
E|-------------------------------|3-------3-------3-------3------|
          And you know    the     things     she  does
e|------- ------- ------- -------|-9-\7-- ----7-- ------- -------|
B|-------------------------------|10-\8-------8------------------|
G|-------------------------------|-9-\7-------7------------------|
D|-------------------------------|-------------------------------|
A|-------------------------------|-------------------------------|
E|-------------------------------|-------------------------------|


                                  A
e|3---3-- 3------ 3------ 3------|0---0-- 0---0-- 0---0-- 0---0--|
B|3---3---3-------3-------3------|2---2---2---2---2---2---2---2--|
G|0---0---0-------0-------0------|2---2---2---2---2---2---2---2--|
D|0---0---0-------0-------0------|2---2---2---2---2---2---2---2--|
A|2---2---2-------2-------2------|0---0---0---0---0---0---0---0--|
E|3---3---3-------3-------3------|-------------------------------|
              She does    for     me,             ooh
e|------- ----7-- ------- -------|7-/-9-- ------- 7-/-9-- -------|
B|------------8-----------8------|8-/10-----------8-/10----------|
G|------------7-----------7------|7-/-9-----------7-/-9----------|
D|-------------------------------|-------------------------------|
A|-------------------------------|-------------------------------|
E|-------------------------------|-------------------------------|

e|------- ------- ------- -------|------- ------- ------- -------|
B|-------------------------------|-------------------------------|
G|-------------------------------|-------------------------------|
D|-------------------------------|-------------------------------|
A|-------------------------------|-------------------------------|
E|-------------------------------|--------------------0---2---4--|




Solo

  A                               D       E
e|0------ 0------ 0------ 0---0--|2------ 0------ ----0-- 0------|
B|2-------2-------2-------2---2--|3-------0-----------0---0------|
G|2-------2-------2-------2---2--|2-------1-----------1---1------|
D|2-------2-------2-------2---2--|0-------2-----------2---2------|
A|0-------0-------0-------0---0--|--------2-----------2---2------|
E|-------------------------------|--------0-----------0---0------|

e|------- 0------ 0---0-- ----0--|0------ 0------ ------- -------|
B|--------5-------5---3-------2--|2-------3----------------------|
G|--------6---7---6---4-------2--|2-------4----------------------|
D|-------------------------------|-------------------------------|
A|0------------------------------|--------------------0---2---4--|
E|-------------------------------|-------------------------------|

e|------- -9--10- -9----- -------|-9----- 7------ ------- -------|
B|--------10------10--12------10-|10------9----------------------|
G|---------9-------9-----------9-|-9------9----------------------|
D|-------------------------------|-------------------------------|
A|-------------------------------|-------------------------------|
E|-------------------------------|-------------------------------|




  A                           G           D
e|0------ 0---0-- 0---0-- 0---3-3|3------ 2------ ----2-- ----2--|
B|2-------2---2---2---2---2---3-3|3-------3-----------3-------3--|  
G|2-------2---2---2---2---2---0-0|0-------2-----------2-------2--|
D|2-------2---2---2---2---2---0-0|0-------0-----------0-------0--|
A|0-------0---0---0---0---0---2-2|2------------------------------|
E|----------------------------3-3|3------------------------------|

e|------- 0------ 0---0-- ----0--|------- ------- ------- -------|
B|--------5-------5---3-------2--|3-------3----------------------|
G|--------6---7---6---4-------2--|4-------2----------------------|
D|-------------------------------|5-------5----------------------|
A|0------------------------------|-------------------------------|
E|-------------------------------|-------------------------------|

e|------- -9--10- -9----- -------|7------ 5------ ------- -------|
B|--------10------10--12------10-|8-------7----------------------|
G|---------9-------9-----------9-|7-------7----------------------|
D|-------------------------------|-------------------------------|
A|-------------------------------|-------------------------------|
E|-------------------------------|-------------------------------|



  Bm                              E               A
e|2------ 2------ 2------ 2------|0------ 0------ 0------ 0---0--|
B|3-------3-------3-------3------|0-------0-------2-------2---2--|
G|4-------4-------4-------4------|1-------1-------2-------2---2--|
D|4-------4-------4-------4------|2-------2-------2-------2---2--|
A|2-------2-------2-------2------|2-------2-------0-------0---0--|
E|-------------------------------|0-------0----------------------|

e|------- ------- ------- -------|------- ------- 0------ -------|
B|----3---------------3----------|----0-------3------------------|
G|4-----------4---2-----------2--|1------------------------------|
D|-------------------------------|-------------------------------|
A|-------------------------------|-------------------------------|
E|-------------------------------|-------------------------------|

e|----10- ------- ----10- -------|------- ----10- 12----- -------|
B|12----------12--10----------10-|9---12----------14-------------|
G|-------------------------------|-------------------------------|
D|-------------------------------|-------------------------------|
A|-------------------------------|-------------------------------|
E|-------------------------------|-------------------------------|




                                  G
e|0------ 0---0-- 0---0-- 0------|3------ 3------ 3------ 3------|
B|2-------2---2---2---2---2------|3-------3-------3-------3------|
G|2-------2---2---2---2---2------|0-------0-------0-------0------|
D|2-------2---2---2---2---2------|0-------0-------0-------0------|
A|0-------0---0---0---0---0------|2-------2-------2-------2------|
E|-------------------------------|3-------3-------3-------3------|
          Every   litlle          thing       she does
e|------- ------- ------- -------|-9-\7-- ----7-- ------- -------|
B|-------------------------------|10-\8-------8------------------|
G|-------------------------------|-9-\7-------7------------------|
D|-------------------------------|-------------------------------|
A|-------------------------------|-------------------------------|
E|-------------------------------|-------------------------------|



                                  A
e|3---3-- 3------ 3------ 3------|0------ 0---0-- 0------ 0---0--|
B|3---3---3-------3-------3------|2-------2---2---2-------2---2--|
G|0---0---0-------0-------0------|2-------2---2---2-------2---2--|
D|0---0---0-------0-------0------|2-------2---2---2-------2---2--|
A|2---2---2-------2-------2------|0-------0---0---0-------0---0--|
E|3---3---3-------3-------3------|-------------------------------|
              She does    for     me,             yeah
e|------- ----7-- ------- -------|7-/-9-- ------- 7-/-9-- ----9--|
B|------------8------------------|8-/10-----------8-/10------10--|
G|------------7------------------|7-/-9-----------7-/-9-------9--|
D|-------------------------------|-------------------------------|
A|-------------------------------|-------------------------------|
E|-------------------------------|-------------------------------|



                                  G
e|0---0-- 0------ 0---0-- 0------|3------ 3------ 3------ 3------|
B|2---2---2-------2---2---2------|3-------3-------3-------3------|
G|2---2---2-------2---2---2------|0-------0-------0-------0------|
D|2---2---2-------2---2---2------|0-------0-------0-------0------|
A|0---0---0-------0---0---0------|2-------2-------2-------2------|
E|-------------------------------|3-------3-------3-------3------|
          And you know    the     things     she  does
e|------- ------- ------- -------|-9-\7-- ----7-- ------- -------|
B|-----------10------------------|10-\8-------8------------------|
G|------------9------------------|-9-\7-------8------------------|
D|-------------------------------|-------------------------------|
A|-------------------------------|-------------------------------|
E|-------------------------------|-------------------------------|



                                  A
e|3---3-- 3------ 3------ 3------|0------ 0---0-- 0---0-- 0---0--|
B|3---3---3-------3-------3------|2-------2---2---2---2---2---2--|
G|0---0---0-------0-------0------|2-------2---2---2---2---2---2--|
D|0---0---0-------0-------0------|2-------2---2---2---2---2---2--|
A|2---2---2-------2-------2------|0-------0---0---0---0---0---0--|
E|3---3---3-------3-------3------|-------------------------------|
              She does    for     me,             ooh
e|------- ----7-- ------- -------|7-/-9-- ------- 7-/-9-- -------|
B|------------8------------------|8-/10-----------8-/10----------|
G|------------7------------------|7-/-9-----------7-/-9----------|
D|-------------------------------|-------------------------------|
A|-------------------------------|-------------------------------|
E|-------------------------------|-------------------------------|



                                  E
e|0------ ------- ----0-- 0---0--|0------ 0------ 0------ 0------|
B|2-------------------2---2---2--|0-------0-------0-------0------|
G|2-------------------2---2---2--|1-------1-------1-------1------|
D|2-------------------2---2---2--|2-------2-------2-------2------|
A|0-------------------0---0---0--|2-------2-------3-------2------|
E|-------------------------------|0-------0-------0-------0------|
                                                  Every   little
e|------- 0------ 0---0-- ----0--|0------ 0------ ------- -------|
B|--------5-------5---3-------2--|2-------3----------------------|
G|--------6---7---6---4-------2--|2-------4----------------------|
D|-------------------------------|-------------------------------|
A|-------------------------------|-------------------------------|
E|-------------------------------|-------------------------------|

e|------- -9--10- -9----- -------|-9----- 7------ ------- -------|
B|--------10------10--12------10-|10------9----------------------|
G|---------9-------9-----------9-|-9------9----------------------|
D|-------------------------------|-------------------------------|
A|-------------------------------|-------------------------------|
E|-------------------------------|-------------------------------|




  A                           E
e|0------ ------- ------- ----0--|0------ 0------ 0------ 0------|
B|2---------------------------0--|0-------0-------0-------0------|
G|2---------------------------1--|1-------1-------1-------1------|
D|2---------------------------2--|2-------2-------2-------2------|
A|0---------------------------2--|2-------2-------3-------2------|
E|----------------------------0--|0-------0-------0-------0------|
  thing                                           Every   litlle
e|------- 0------ 0---0-- ----0--|0------ 0------ ------- -------|
B|--------5-------5---3-------2--|2-------3----------------------|
G|--------6---7---6---4-------2--|2-------4----------------------|
D|-------------------------------|-------------------------------|
A|-------------------------------|-------------------------------|
E|-------------------------------|-------------------------------|

e|------- -9--10- -9----- -------|-9----- 7------ ------- -------|
B|--------10------10--12------10-|10------9----------------------|
G|---------9-------9-----------9-|-9------9----------------------|
D|-------------------------------|-------------------------------|
A|-------------------------------|-------------------------------|
E|-------------------------------|-------------------------------|
                                  ......................Fade.....

  A                               E
e|0------ 0---0-- ----0-- 0---0--|0------ 0------ 0------ 0------|
B|2-------2---2-------2---2---2--|0-------0-------0-------0------|
G|2-------2---2-------2---2---2--|1-------1-------1-------1------|
D|2-------2---2-------2---2---2--|2-------2-------2-------2------|
A|0-------0---0-------0---0---0--|2-------2-------3-------2------|
E|-------------------------------|0-------0-------0-------0------|
  thing
e|------- 0------ 0---0-- ----0--|0------ 0------ ------- -------|
B|--------5-------5---3-------2--|2-------3----------------------|
G|--------6---7---6---4-------2--|2-------4----------------------|
D|-------------------------------|-------------------------------|
A|-------------------------------|-------------------------------|
E|-------------------------------|-------------------------------|

e|------- -9--10- -9----- ----5--|5---/-- 7------ ------- -------|
B|--------10------10--12------7--|7---/---9----------------------|
G|---------9-------9----------7--|7---/---9----------------------|
D|-------------------------------|-------------------------------|
A|-------------------------------|-------------------------------|
E|-------------------------------|-------------------------------|
  ....................................


        B  Bend
        R  Release
        /  slide up
        \  slide down
        H  hammer-on
        P  pull-off
        ~  vibrato
        +  harmonic
        x  Mute note
        . - play note like a dot in standard notation
        ^ - ties two notes together





Comments


Popular Beatles tabs & chords
A Hard Day's Night Bass Tabs
A Day In The Life 1 Chords
A Hard Day's Night Chords
Every Little Thing 1 Chords
I'll Follow The Sun Chords
Two Of Us Chords
Carry That Weight 4 Tabs
Eight Days A Week 1 Tabs
Girl 2 Tabs
Hide Your Love Away 1 Tabs


Song lyrics



↑ Back to top | Tablatures and chords are parodies/interpretations of the original songs. You may use it for private study, scholarship, research or language learning purposes only
© 2014 AZChords.com Contact us | Privacy policy | DMCA | Add/correct tabs | Request tabs | Top 50 tabs