» » »

Beatles, Every Little Thing Bass tabs (ver.1)

Artists:  A B C D E F G H I J K L M N O P Q R S T U V W X Y Z # 

Every Little Thing Bass tabs (ver.1)

Beatles Tabs
 Rating:
4/5 (4 votes)
Every Little Thing lessons Tabs too difficult? Try these video lessons and learn fast
1
                Every Little Thing
The Beatles
Written by John Lennon and Paul McCartney; released on "Beatles For Sale" 
album.

This one is very nice, a great love song :-)

Intro:
G|------- ------- ------- -------|------- ------- ------- -------|
D|-------------------------------|-------------------------------|
A|-------------------------------|-------------------------------|
E|-------------------------------|-------------------------------|


Verse:
G|------- ------- ------- -------|------- ------- ------- -------|
D|7-----------7---7-----------7--|-------------------------------|
A|-------------------------------|5-------7---------------7------|
E|-------------------------------|-------------------------------|
          When I'm walking    be- side    her,


G|------- ------- ------- -------|------- ------- ------- -------|
D|7-----------7---7--------------|5------------------------------|
A|-------------------------------|--------5---------------4---\--|
E|-------------------------------|-------------------------------|
          people  tell me     I'm lu  -   cky


G|------- ------- ------- -------|------- ------- ------- -------|
D|-------------------------------|-------------------------------|
A|2-----------2------------------|-------------------------------|
E|----------------5--------------|4-----------4---5--------------|
          Yes, I  know I'm   a    lucky       guy

Verse:
G|------- ------- ------- -------|------- ------- ------- -------|
D|7-----------7---7--------------|-------------------------------|
A|-------------------------------|5-------7---------------7------|
E|-------------------------------|-------------------------------|
          I   re- member      the first   time,


G|------- ------- ------- -------|------- ------- ------- -------|
D|7-----------7---7-------7------|5------------------------------|
A|-------------------------------|--------5-------5-------4---\--|
E|-------------------------------|-------------------------------|
          I   was lonely      without     her


G|------- ------- ------- -------|------- ------- ------- -------|
D|-------------------------------|-------------------------------|
A|2-----------2------------------|-------------------------------|
E|----------------5--------------|4-----------4---5-------5------|
          Can't   thinking   a -  bout her    now
              stop
Refrain:
G|------- ------- ------- -------|------- ------- ------- -------|
D|7-------7---7---7---7---7---7--|5---5---5---5---5---5---5------|
A|-------------------------------|----------------------------5--|
E|-------------------------------|-------------------------------|
          Every   li  -   ttle    thing       she does,


G|------- ------- ------- -------|------- ------- ------- -------|
D|5---5---5---5---5---5---5------|7---7---7---7---7---7---7---7--|
A|-------------------------------|-------------------------------|
E|-------------------------------|-------------------------------|
              she does    for     me,             ooh!


G|------- ------- ------- -------|------- ------- ------- -------|
D|7---7---7---7---7---7---7---7--|5---5---5---5---5---5---5------|
A|-------------------------------|----------------------------5--|
E|-------------------------------|-------------------------------|
          And you know    the     things      she does,


G|------- ------- ------- -------|------- ------- ------- -------|
D|5---5---5---5---5---5---5---5--|7---7---7---7---7---7---7---7--|
A|-------------------------------|-------------------------------|
E|-------------------------------|-------------------------------|
              she does    for     me,             yeah!

Verse:
G|------- ------- ------- -------|------- ------- ------- -------|
D|7-----------7---7-------7------|-------------------------------|
A|-------------------------------|5-------7---------------7------|
E|-------------------------------|-------------------------------|
          When I'm with her,  I'm hap  -  py


G|------- ------- ------- -------|------- ------- ------- -------|
D|7-----------7---7-------7------|5------------------------------|
A|-------------------------------|--------5-------5-------4---\--|
E|-------------------------------|-------------------------------|
          just to know that   she loves   me


G|------- ------- ------- -------|------- ------- ------- -------|
D|-------------------------------|-------------------------------|
A|2-----------2------------------|----------------------------7--|
E|----------------5--------------|4-----------4---5--------------|
          Yes, I  know that  she  loves me    now

Verse:
G|------- ------- ------- -------|------- ------- ------- -------|
D|7-----------7---7-------7------|-------------------------------|
A|-------------------------------|5-------7-------7-------7------|
E|-------------------------------|-------------------------------|
          There is one thing  I'm sure    of:


G|------- ------- ------- -------|------- ------- ------- -------|
D|7-----------7---7-----------7--|5------------------------------|
A|-------------------------------|--------5-------5---5---4---\--|
E|-------------------------------|-------------------------------|
          I   will love her   for-e   -   ver,


G|------- ------- ------- -------|------- ------- ------- -------|
D|-------------------------------|-------------------------------|
A|2-----------2------------------|-------------------------------|
E|----------------5--------------|4-----------4---5-------5------|
          For I   know love  will ne- ver     die

Refrain:
G|------- ------- ------- -------|------- ------- ------- -------|
D|7-------7-------7---7---7---7--|5---5---5---5---5---5---5------|
A|-------------------------------|----------------------------5--|
E|-------------------------------|-------------------------------|
          Every   li  -   ttle    thing       she does,


G|------- ------- ------- -------|------- ------- ------- -------|
D|5---5---5---5---5---5---5---5--|7---7---7---7---7---7---7---7--|
A|-------------------------------|-------------------------------|
E|-------------------------------|-------------------------------|
              she does    for     me,             ooh!


G|------- ------- ------- -------|------- ------- ------- -------|
D|7---7---7---7---7---7---7---7--|5---5---5---5---5---5---5------|
A|-------------------------------|----------------------------5--|
E|-------------------------------|-------------------------------|
          And you know    the     things      she does,


G|------- ------- ------- -------|------- ------- ------- -------|
D|5---5---5---5---5---5---5---5--|7---7---7---7---7---7---7---7--|
A|-------------------------------|-------------------------------|
E|-------------------------------|-------------------------------|
              she does    for     me,             yeah!

Verse (solo):
G|------- ------- ------- -------|------- ------- ------- -------|
D|7-----------7---7-------7---7--|-------------------------------|
A|-------------------------------|5-------7-------7---7---7---7--|
E|-------------------------------|-------------------------------|



G|------- ------- ------- -------|------- ------- ------- -------|
D|7-----------7---7--------------|5------------------------------|
A|-------------------------------|--------5-------5---5-------4--|
E|-------------------------------|-------------------------------|



G|------- ------- ------- -------|------- ------- ------- -------|
D|-------------------------------|----------------7--------------|
A|-------------------------------|------------7-----------7------|
E|7-----------7---5-----------5--|4------------------------------|


Refrain:
G|------- ------- ------- -------|------- ------- ------- -------|
D|7---7---7---7---7---7---7---7--|5---5---5---5---5---5---5------|
A|-------------------------------|----------------------------5--|
E|-------------------------------|-------------------------------|
          Every   li  -   ttle    thing       she does,


G|------- ------- ------- -------|------- ------- ------- -------|
D|5---5---5---5---5---5---5---5--|7---7---7---7---7---7---7---7--|
A|-------------------------------|-------------------------------|
E|-------------------------------|-------------------------------|
              she does    for     me,             ooh!


G|------- ------- ------- -------|------- ------- ------- -------|
D|7---7---7---7---7---7---7---7--|5---5---5---5---5---5---5------|
A|-------------------------------|----------------------------5--|
E|-------------------------------|-------------------------------|
          And you know    the     things      she does,


G|------- ------- ------- -------|------- ------- ------- -------|
D|5---5---5---5---5---5---5---5--|7---7---7---7---7---7---7------|
A|-------------------------------|-------------------------------|
E|-------------------------------|-------------------------------|
              she does    for     me,             yeah!

Outro:
G|------- ------- ------- -------|------- ------- ------- -------|
D|7-----------7---7-------7------|-------------------------------|
A|-------------------------------|5-------7-------7---7----------|
E|-------------------------------|-------------------------------|
                                                  Every   little


G|------- ------- ------- -------|------- ------- ------- -------|
D|7-----------7---7-------7------|-------------------------------|
A|-------------------------------|5-------7-------7---7----------|
E|-------------------------------|-------------------------------|
  thing                                           Every   little...
repeat and fade...

Please e-mail me for any corrections.
            
Submit corrections

comments powered by Disqus
↑ Back to top | Beatles Bass for Every Little Thing. Lyrics for acoustic guitar and electric guitar. 1 Tablatures and chords are parodies/interpretations of the original songs. You may use it for private study, scholarship, research or language learning purposes only