» » »

Every Little Thing Tabs (ver.1)

Artists:  A B C D E F G H I J K L M N O P Q R S T U V W X Y Z # 

Every Little Thing Tabs (ver.1)

Beatles
Rating:
0/5 (0 votes)

Hard to play? Try these video lessons and learn fast.
                Tuning: Standard

 Intro

e|------0-------0----0---------0----0--------0-------------------------------|
B|------5-------5----3---------2----2--------3-------------------------------|
G|------6---7---6----4---------2----2--------4-------------------------------|
D|---------------------------------------------------------------------------|
A|---------------------------------------------------------------------------|
E|---------------------------------------------------------------------------|

 Solo (First guitar)

e|------0-------0----0---------0-----0-------0-------------------------------|
B|------5-------5----3---------2-----2-------3-------------------------------|
G|------6---7---6----4---------2-----2-------4-------------------------------|
D|---------------------------------------------------------------------------|
A|-----------------------------------------------------------0----2----4-----|
E|---------------------------------------------------------------------------|

e|------0-------0----0---------0---------------------------------------------|
B|------5-------5----3---------2-----3-------3-------------------------------|
G|------6---7---6----4---------2-----4-------2-------------------------------|
D|0----------------------------------5-------5-------------------------------|
A|---------------------------------------------------------------------------|
E|---------------------------------------------------------------------------|

e|---------------------------------------0-----------------------------------|
B|---3-------------3-------------0---3---------------------------------------|
G|4----------4---2---------2---1---------------------------------------------|
D|---------------------------------------------------------------------------|
A|---------------------------------------------------------------------------|
E|---------------------------------------------------------------------------|

 Solo (Second Guitar)

e|------9--10---9---------------9----9-------7-------------------------------|
B|------10------10---12---------10---10------9-------------------------------|
G|------9-------9----------------------------9-------------------------------|
D|---------------------------------------------------------------------------|
A|---------------------------------------------------------------------------|
E|---------------------------------------------------------------------------|

e|------9--10---9--------------------7-------5-------------------------------|
B|------10------10---12---------10---8-------8-------------------------------|
G|------9-------9----------------9---7-------7-------------------------------|
D|---------------------------------------------------------------------------|
A|---------------------------------------------------------------------------|
E|---------------------------------------------------------------------------|

e|---10--------------10-------------------10--12-----------------------------|
B|12--------12--10----------10---9---12--------------------------------------|
G|---------------------------------------------------------------------------|
D|---------------------------------------------------------------------------|
A|---------------------------------------------------------------------------|
E|---------------------------------------------------------------------------|




| /  slide up
|   slide down
| h  hammer-on
| p  pull-off
| ~  vibrato
| +  harmonic
| x  Mute note
            
Hard to play? Try these video lessons and learn fast. | Correct




comments powered by Disqus
↑ Back to top | Tablatures and chords are parodies/interpretations of the original songs. You may use it for private study, scholarship, research or language learning purposes only