» » »

Beatles, Eleanor Rigby Bass tabs (ver.2)

Artists:  A B C D E F G H I J K L M N O P Q R S T U V W X Y Z # 

Eleanor Rigby Bass tabs (ver.2)

Beatles Tabs
 Rating:
4/5 (4 votes)
Eleanor Rigby lessons Tabs too difficult? Try these video lessons and learn fast
                ELEANOR RIGBY

By Paul McCartney

INTRO CHORUS

G|---------4---5-------------------|-----------------------------4---|
D|-----5---------------------------|---------------------------------|
A|---------------------------------|---------------------------------|
E|---------------------------------|---------------------------------|

G|-4-------------------------------|---------------------------------|
D|---------4-4-5---2---------------|---------------------------------|
A|---------------------------------|---------------------------------|
E|---------------------------------|---------------------------------|

G|-5-------------------------------|---------------------------------|
D|-----5---2-----------------------|---------------------------------|
A|-------------3-------------------|---------------------------------|
E|---------------------------------|---------------------------------|

G|-----4---------------------------|---------------------------------|
D|---------5---2-------------------|---------------------------------|
A|---------------------------------|---------------------------------|
E|---------------------------------|---------------------------------|

VERSE

G|---------------------------------|---------------------------------|
D|-2-------2-------2-------2-------|-2-------2-------2-------2-------|
A|---------------------------------|---------------------------------|
E|---------------------------------|---------------------------------|

G|---------------------------------|-5-------12------17------12------|
D|-2-------2-------2-------2-------|---------------------------------|
A|---------------------------------|---------------------------------|
E|---------------------------------|---------------------------------|

G|-5-------5-------9---------------|-9-------9-------9-------9-------|
D|-------------------------2-------|---------------------------------|
A|---------------------------------|---------------------------------|
E|---------------------------------|---------------------------------|

G|-9-------9-------9-------9-------|-9-------9-------7-------7-------|
D|---------------------------------|---------------------------------|
A|---------------------------------|---------------------------------|
E|---------------------------------|---------------------------------|

G|-5-------12------17------12------|-5-------7-------9---------------|
D|---------------------------------|-------------------------2-------|
A|---------------------------------|---------------------------------|
E|---------------------------------|---------------------------------|

CHORUS

G|-7-------------------------------|-6-------------------------------|
D|---------------------------------|---------------------------------|
A|---------------------------------|---------------------------------|
E|---------------------------------|---------------------------------|

G|-5-------------------------------|-4-------------------------------|
D|---------------------------------|---------------------------------|
A|---------------------------------|---------------------------------|
E|---------------------------------|---------------------------------|

G|-7-------------------------------|-6-------------------------------|
D|---------------------------------|---------------------------------|
A|---------------------------------|---------------------------------|
E|---------------------------------|---------------------------------|

G|-5-------------------------------|-4-------------------------------|
D|---------------------------------|---------------------------------|
A|---------------------------------|---------------------------------|
E|---------------------------------|---------------------------------|

VERSE

G|---------------------------------|---------------------------------|
D|-2-------2-------2-------2-------|-2-------2-------2-------2-------|
A|---------------------------------|---------------------------------|
E|---------------------------------|---------------------------------|

G|---------------------------------|---------------------2---4---5---|
D|-2-------2-------2-------2-------|---------2---4---5---------------|
A|---------------------------------|-3---5---------------------------|
E|---------------------------------|---------------------------------|

G|-------------9-------------------|---------------------------------|
D|---------------------------------|-2-------2-------2-------2-------|
A|---------------------------------|---------------------------------|
E|---------------------------------|---------------------------------|

G|---------------------------------|---------------------------------|
D|-2-------2-------2-------2-------|-2-------2-------2-------2-------|
A|---------------------------------|---------------------------------|
E|---------------------------------|---------------------------------|

G|---------------------2---4---5---|-------------9-------------------|
D|---------2---4---5---------------|---------------------------------|
A|-3---5---------------------------|---------------------------------|
E|---------------------------------|---------------------------------|

CHORUS

G|-7-------------------------------|-6-------------------------------|
D|---------------------------------|---------------------------------|
A|---------------------------------|---------------------------------|
E|---------------------------------|---------------------------------|

G|-5-------------------------------|-4-------------------------------|
D|---------------------------------|---------------------------------|
A|---------------------------------|---------------------------------|
E|---------------------------------|---------------------------------|

G|-7-------------------------------|-6-------------------------------|
D|---------------------------------|---------------------------------|
A|---------------------------------|---------------------------------|
E|---------------------------------|---------------------------------|

G|-5-------------------------------|-4-------------------------------|
D|---------------------------------|---------------------------------|
A|---------------------------------|---------------------------------|
E|---------------------------------|---------------------------------|

CHORUS

G|-5-------4---5-------------------|-------------------------5-\-4---|
D|-----5---------------------------|---------------------------------|
A|---------------------------------|---------------------------------|
E|---------------------------------|---------------------------------|

G|-4-------------------------------|---------------------------------|
D|-------------5---2---------------|---------------------------------|
A|---------------------------------|---------------------------------|
E|---------------------------------|---------------------------------|

G|---------------------------------|---------------------------------|
D|-----5---2-----------------------|---------------------------------|
A|-------------3-------------------|---------------------------------|
E|---------------------------------|---------------------------------|

G|-----4---------------------------|---------------------------------|
D|---------5---2-------------------|---------------------------------|
A|---------------------------------|---------------------------------|
E|---------------------------------|---------------------------------|

VERSE

G|---------------------------------|---------------------------------|
D|-2-------2-------2-------2-------|-2-------2-------2-------2-------|
A|---------------------------------|---------------------------------|
E|---------------------------------|---------------------------------|

G|---------------------------------|---------------------------------|
D|-2-------2-------2-------2-------|-2-------2-------2-------2-------|
A|---------------------------------|---------------------------------|
E|---------------------------------|---------------------------------|

G|---------------------------------|---------------------------------|
D|-2-------2-------2-------2-------|---------------------------------|
A|---------------------------------|-------------------------7---9---|
E|---------------------------------|---------------------7-----------|

G|-------------7-------6-------6---|---------------------------------|
D|-----7---9---------------9-------|-----9---7---9-------7---5---7---|
A|-10------------------------------|---------------------------------|
E|---------------------------------|---------------------------------|

G|---------------------------------|---------------------------------|
D|-------------------------7-------|-7---------------5---------------|
A|---------------------7-------7---|---------------------------------|
E|---------------------------------|---------------------------------|

CHORUS

G|-7-------------------------------|-6-------------------------------|
D|---------------------------------|---------------------------------|
A|---------------------------------|---------------------------------|
E|---------------------------------|---------------------------------|

G|-5-------------------------------|-4-------------------------------|
D|---------------------------------|---------------------------------|
A|---------------------------------|---------------------------------|
E|---------------------------------|---------------------------------|

G|-7-------------------------------|-6-------------------------------|
D|---------------------------------|---------------------------------|
A|---------------------------------|---------------------------------|
E|---------------------------------|---------------------------------|

G|-5-------------------------------|-9-------4-----------------------|
D|---------------------------------|-----------------5-------4-------|
A|---------------------------------|---------------------------------|
E|---------------------------------|---------------------------------|

G|---------------------------------|
D|-2-------------------------------|
A|---------------------------------|
E|---------------------------------|
            
Submit corrections

comments powered by Disqus
↑ Back to top | Beatles Bass for Eleanor Rigby. Lyrics for acoustic guitar and electric guitar. Tablatures and chords are parodies/interpretations of the original songs. You may use it for private study, scholarship, research or language learning purposes only