» » »

Beatles, Eleanor Rigby Tabs (ver.3)

Artists:  A B C D E F G H I J K L M N O P Q R S T U V W X Y Z # 

Eleanor Rigby Tabs (ver.3)

Beatles Tabs
 Rating:
4/5 (4 votes)
Eleanor Rigby lessons Tabs too difficult? Try these video lessons and learn fast
                If you wish to use this tab on a site or claim credit 
for it, please inform me before hand.  Thanks!


|---------------------||-----------------------|-------------------------|
|---------------------||-----------------------|--3--3--5--1-------------|
|---------------------||*----------------------|--4--4--5--2-----2-------|
|---------------------||*----------------------|-----------------2-------|
|------0----0----0----||---0----0----0----0----|--0-----0-----0-----0----|
|---------------------||-----------------------|-------------------------|

|-----------3-----2-----2--|--------------------------|----------------------|
|--1--3--5--5-----3--5--3--|-----5--3--5-----3--1--3--|----------------------|
|--2--4--5-----------5-----|-----5--4--5-----4--0-----|----------------------|
|--------------------------|-----------------------4--|----------------------|
|--0-----0-----0-----0-----|--0-----0-----0-----0-----|--0----0----0----0----|
|--------------------------|--------------------------|----------------------|

|--------0--1-----0-------|-------------------------|-----------3-----2-----2--|
|--1--3-----------1-------|--3--3--5--1-------------|--1--3--5--5-----3--5--3--|
|--------0--2-------------|--4--4--5--2-----2-------|--2--4--5-----------5-----|
|--3--3-------------------|-----------------2-------|--------------------------|
|--0-----0-----0-----0----|--0-----0-----0-----0----|--0-----0-----0-----0-----|
|-------------------------|-------------------------|--------------------------|

|--------------------------|----------------------|--------0--1-----0-------|
|-----5--3--5-----3--1--3--|----------------------|--1--3-----------1-------|
|-----5--4--5-----4--0-----|----------------------|--------0--2-------------|
|-----------------------4--|----------------------|--3--3-------------------|
|--0-----0-----0-----0-----|--0----0----0----0----|--0-----0-----0-----0----|
|--------------------------|----------------------|-------------------------|

|-----------0--|-----------------------0--|--5----0--------------|
|--3--1--3-----|--1--------------0--1-----|------------3----1----|
|--------------|-----2---------2----------|--5----0--------------|
|--4-----3-----|--2----------2------------|------------4----3----|
|--0-----0-----|--0-------0---------------|----------------------|
|--------------|--------------------------|----------------------|


|----------------------|-----------0--|-----------------------0--|
|----------------------|--3--1--3-----|--1--------------0--1-----|
|--2-------------------|--------------|-----2---------2----------|
|--2-------------------|--4-----3-----|--2----------2------------|
|-------0----0----0----|--0-----0-----|--0-----------------------|
|----------------------|--------------|----------3---------------|


|--8-----------0---------|-----------------------||--------------------------|
|--10----10----3----3----|--1--------------------||--------------------------|
|--9-----------2---------|--2-------------------*||--------------------------|
|------------------------|--2-------------------*||--------------------------|
|--8---------------------|--0----0----0----0-----||--0--0--0--0--0--0--0--0--|
|--------------0---------|-----------------------||--------------------------|


|--5-----------------7--8--|--10-----8------7-----5-----|
|--6-----------------------|--10-----10-----8-----6-----|
|--5-----------------------|---------9------7-----5-----|
|--------------------------|----------------------------|
|--5--5--5--5--5--5--5--5--|--8---8--8---8--7--7--5--5--|
|--------------------------|----------------------------|


|--------------------------|--------------------------|
|--5-----------------------|--------------------------|
|--5-----5-----------------|--------------------------|
|--7-----7-----------------|--------------------------|
|--------7-----------------|--------------------------|
|--0--0--0--0--0--0--0--0--|--0--0--0--0--0--0--0--0--|


|--5-----------------7--8--|--10-----8------7-----5-----|
|--6-----------------------|--10-----10-----8-----6-----|
|--5-----------------------|---------9------7-----5-----|
|--------------------------|----------------------------|
|--5--5--5--5--5--5--5--5--|--8---8--8---8--7--7--5--5--|
|--------------------------|----------------------------|


|--------------------------|--0----------------|---------------------|------||
|--5-----------------------|--0----------------|---------------------|------||
|--5-----5-----------------|--7----------------|---------------------|------||
|--7-----7-----------------|--7----------------|---------------------|------||
|--------7-----------------|--7----------------|------0----0----0----|------||
|--0--0--0--0--0--0--0--0--|--0----------------|---------------------|------||


---------------------------------------------
---------------------------------------------
            
Submit corrections

comments powered by Disqus
↑ Back to top | Beatles Tabs for Eleanor Rigby. Lyrics for acoustic guitar and electric guitar. Tablatures and chords are parodies/interpretations of the original songs. You may use it for private study, scholarship, research or language learning purposes only