» » »

Beatles, Eleanor Rigby Bass tabs (ver.1)

Artists:  A B C D E F G H I J K L M N O P Q R S T U V W X Y Z # 

Eleanor Rigby Bass tabs (ver.1)

Beatles Tabs
Rating:
0/5 (0 votes)
Eleanor Rigby lessons Tabs too difficult? Try these video lessons and learn fast
                Here's the real bass tab for Eleanor Rigby :D

INTRO/REFRAIN:

" Ah, look at all the lonely people..."
1-----4--5--------------------------4---------|
2--5-----------------------------------5------|
3-----------------------------------------7---|
4---------------------------------------------|

" Ah, look at all the lonely people..."
1-------------------------------4---------|
2--5-------------------------------5------|
3-----7--3----------------------------7---|
4-----------------------------------------|

FIRST VERSE

"Eleanor Rigby, picks up the rice in the church..."
1------------------------------------|
2------------------------------------|
3------------------------------------|
4-0-0-0-0-0-0-0-0-0-0-0-0-0-0-0------|

"Where a wedding has been.........Lives in a dream..."
1-----------------------------5----------|
2---------------------------5---5--------|
3-------------------------3-------5-3~---|
4-0-0-0-0-0-0-0-0-0-0-0-0----------------|


"Waits at the window, wearing the face that she keeps..."
1------------------------------------|
2------------------------------------|
3------------------------------------|
4-0-0-0-0-0-0-0-0-0-0-0-0-0-0-0-0----|


"In a jar by the door.......Who is it for?"
1------------------------------------------|
2------------------------------------------|
3-------------------5-5--3-3--5-5----------|
4-0-0-0-0-0-0-0-0-0------------------------|

CHORUS

"All the lonely people, where do they all come from?"
1-------------------------------------------|
2-------------------------------------------|
3-------------------------------------------|
4--0~----------0~-------------0~----0~------|

"All the lonely people, where do they all belong?"
1---------------------------------------|
2---------------------------------------|
3---------------------------------------|
4--0~---------0~---------0~-------0~----|

SECOND VERSE

"Father Mckenzie, writing the words of a sermon..."
1------------------------------------|
2------------------------------------|
3------------------------------------|
4-0-0-0-0-0-0-0-0-0-0-0-0-0-0-0------|

"That no-one will hear......no-one comes near,"
1-----------------------------2-4-7-------9-------|
2------------------------2-4-7--------------------|
3--------------------3-5--------------------------|
4-0-0-0-0-0-0-0-0-0-------------------------------|

"Look at him working, darning his socks in the night...
1------------------------------------|
2------------------------------------|
3------------------------------------|
4-0-0-0-0-0-0-0-0-0-0-0-0-0-0--------|

"When there's nobody there........what does he care?"
1-----------------------------2-4-7--------9-------|
2-----------------------2-4-7----------------------|
3-------------------3-5----------------------------|
4-0-0-0-0-0-0-0-0-0--------------------------------|

CHORUS

"All the lonely people, where do they all come from?"
1-------------------------------------------|
2-------------------------------------------|
3-------------------------------------------|
4--0~----------0~-------------0~----0~------|

"All the lonely people, where do they all belong?"
1---------------------------------------|
2---------------------------------------|
3---------------------------------------|
4--0~---------0~---------0~-------0~----|

REFRAIN

" Ah, look at all the lonely people..."
1-----4--5--------------------------4---------|
2--5-----------------------------------5------|
3-----------------------------------------7---|
4---------------------------------------------|

" Ah, look at all the lonely people..."
1-------------------------------4---------|
2--5-------------------------------5------|
3-----7--3----------------------------7---|
4-----------------------------------------|

THIRD VERSE

"Eleanor Rigby died in the church, and was buried..."
1------------------------------------|
2------------------------------------|
3------------------------------------|
4-0-0-0-0-0-0-0-0-0-0-0-0-0-0--------|

"Along with her name.....nobody came,"
1------------------------2-4-7----9-----|
2------------------2-4-7----------------|
3--------------3-5----------------------|
4-0-0-0-0-0-0---------------------------|

"Father Mckenzie, wiping the dirt from his..."
1------------------------------------|
2------------------------------------|
3------------------------------------|
4-0-0-0-0-0-0-0-0-0-0-0-0-0----------|

"Hands as he walks from the grave.....no-one was saved,"
1---------------------------------2-4-7----9-------|
2---------------------------2-4-7------------------|
3-----------------------3-5------------------------|
4-0-0-0-0-0-0-0-0-0-0-0----------------------------|

CHORUS

"All the lonely people, where do they all come from?"
1-------------------------------------------|
2-------------------------------------------|
3-------------------------------------------|
4--0~----------0~-------------0~----0~------|

"All the lonely people, where do they all belong?"
1---------------------------------------|
2---------------------------------------|
3---------------------------------------|
4--0~---------0~---------0~-------0~----|

OUTRO

1------------------------------------|
2------------------------------------|
3--3-2-------------------------------|
4------3-2-0~------------------------|

Cheers.
            
Submit corrections

comments powered by Disqus
↑ Back to top | Beatles Bass for Eleanor Rigby. Lyrics for acoustic guitar and electric guitar. Tablatures and chords are parodies/interpretations of the original songs. You may use it for private study, scholarship, research or language learning purposes only