» » »

Boys Bass tabs (ver.2)

Artists:  A B C D E F G H I J K L M N O P Q R S T U V W X Y Z # 

Boys Bass tabs (ver.2)

Beatles
Rating:
0/5 (0 votes)

Hard to play? Try these video lessons and learn fast.
                |4-4-4-4-4-4-4-4-|2-2-2-2-2-2-2-|------------1-2-|4-4-4-4-4-4-4-2-|
|----------------|--------------|2-2-2-2-2-2-----|----------------|
|----------------|--------------|----------------|----------------|
|----------------|--------------|----------------|----------------|


|--|--|--|----------------|2-2-2-2-2-2-2-2-|2-2-2-2-2-2-2-4-|
|2-|2-|2-|2-2-2-2-2-2-2-2-|----------------|----------------|
|--|--|--|----------------|----------------|----------------|
|--|--|--|----------------|----------------|----------------|


|----------------|--------------3-|4-4-4-4-4-4-4-4-|2-2-2-2-2-2-2-4-|
|2-2-2-2-2-2-2-2-|2-2-2-2-2-2-2---|----------------|----------------|
|----------------|----------------|----------------|----------------|
|----------------|----------------|----------------|----------------|


|----------------|4-4-4-4-4-4-4-4-|--|--|--|----------------|
|2-2-2-2-2-2-2-2-|----------------|2-|2-|2-|2-2-2-2-2-2-2-2-|
|----------------|----------------|--|--|--|----------------|
|----------------|----------------|--|--|--|----------------|


|2-2-2-2-2-2-2-2-|2-2-2-2-2-2-2-4-|----------------|--------------3-|
|----------------|----------------|2-2-2-2-2-2-2-2-|2-2-2-2-2-2-2---|
|----------------|----------------|----------------|----------------|
|----------------|----------------|----------------|----------------|


|4-4-4-4-4-4-4-4-|2-2-2-2-2-2-2-4-|----------------|4-4-4-4-4-4-4-4-|
|----------------|----------------|2-2-2-2-2-2-2-2-|----------------|
|----------------|----------------|----------------|----------------|
|----------------|----------------|----------------|----------------|


|------4-7-7-6-4-|------4-7-7-6-4-|------4-7-7-6-4-|----------------|
|----6-----------|----6-----------|----6-----------|2-2-0-0---------|
|7-7-------------|7-7-------------|7-7-------------|--------4-4-2-2-|
|----------------|----------------|----------------|----------------|


|--------0-0-----|--------0-0-----|------4-7-7-6-4-|------4-7-7-6-4-|
|------2-----4-2-|------2-----4-2-|----6-----------|----6-----------|
|0-0-4-----------|0-0-4-----------|7-7-------------|7-7-------------|
|----------------|----------------|----------------|----------------|


|--------2-2-1---|--------0-0-----|------4-7-7-6-4-|4-4-4-4-4-4-4-4-|
|----1-4-------4-|------2-----4-2-|----6-----------|----------------|
|2-2-------------|0-0-4-----------|7-7-------------|----------------|
|----------------|----------------|----------------|----------------|


|----1---4-4-2-1-|----1---4-4-2-1-|------4-7-7-6-4-|------4-7-7-6-4-|
|2-2---2---------|2-2---2---------|----6-----------|----6-----------|
|----------------|----------------|7-7-------------|7-7-------------|
|----------------|----------------|----------------|----------------|


|--------0-0-----|--------0-0-----|------4-7-7-6-4-|------4-7-7-6-4-|
|------2-----4-2-|------2-----4-2-|----6-----------|----6-----------|
|0-0-4-----------|0-0-4-----------|7-7-------------|7-7-------------|
|----------------|----------------|----------------|----------------|


|--------2-2-1---|--------0-0-----|------4-7-7-6-4-|4-4-4-4-4-4-4-|
|----1-4-------4-|------2-----4-2-|----6-----------|--------------|
|2-2-------------|0-0-4-----------|7-7-------------|--------------|
|----------------|----------------|----------------|--------------|


|--|--|--|----------------|2-2-2-2-2-2-2-2-|2-2-2-2-2-2-2-4-|
|2-|2-|2-|2-2-2-2-2-2-2-2-|----------------|----------------|
|--|--|--|----------------|----------------|----------------|
|--|--|--|----------------|----------------|----------------|


|----------------|--------------3-|4-4-4-4-4-4-4-4-|2-2-2-2-2-2-2-4-|
|2-2-2-2-2-2-2-2-|2-2-2-2-2-2-2---|----------------|----------------|
|----------------|----------------|----------------|----------------|
|----------------|----------------|----------------|----------------|


|----------------|4-4-4-4-4-4-4-4-|------4-7-7-6-4-|------4-7-7-6-4-|
|2-2-2-2-2-2-2-2-|----------------|----6-----------|----6-----------|
|----------------|----------------|7-7-------------|7-7-------------|
|----------------|----------------|----------------|----------------|


|------4-7-7-6-4-|----------------|--------0-0-----|--------0-0-----|
|----6-----------|2-2-0-0---------|------2-----4-2-|------2-----4-2-|
|7-7-------------|--------4-4-2-2-|0-0-4-----------|0-0-4-----------|
|----------------|----------------|----------------|----------------|


|------4-7-7-6-4-|------4-7-7-6-4-|--------2-2-1---|--------0-0-----|
|----6-----------|----6-----------|----1-4-------4-|------2-----4-2-|
|7-7-------------|7-7-------------|2-2-------------|0-0-4-----------|
|----------------|----------------|----------------|----------------|


|------4-7-7-6-4-|4-4-4-4-4-4-4-4-|------4-7-7-6-4-|------4-7-7-6-4-|
|----6-----------|----------------|----6-----------|----6-----------|
|7-7-------------|----------------|7-7-------------|7-7-------------|
|----------------|----------------|----------------|----------------|


|------4-7-7-6-4-|----------|--------0-0-----|--------0-0-----|
|----6-----------|2-2-0-----|------2-----4-2-|------2-----4-2-|
|7-7-------------|------4-2-|0-0-4-----------|0-0-4-----------|
|----------------|----------|----------------|----------------|


|------4-7-7-6-4-|------4-7-7-6-4-|--------2-2-1---|--------0-0-----|
|----6-----------|----6-----------|----1-4-------4-|------2-----4-2-|
|7-7-------------|7-7-------------|2-2-------------|0-0-4-----------|
|----------------|----------------|----------------|----------------|


|------4-7-7-6-4-|4-4-4-4-4-4-4-4-|------4-7-7-6-4-|------4-7-7-6-4-|
|----6-----------|----------------|----6-----------|----6-----------|
|7-7-------------|----------------|7-7-------------|7-7-------------|
|----------------|----------------|----------------|----------------|


|------4-7-7-6-4-|----------|--------0-0-----|--------0-0-----|
|----6-----------|2-2-0-----|------2-----4-2-|------2-----4-2-|
|7-7-------------|------4-2-|0-0-4-----------|0-0-4-----------|
|----------------|----------|----------------|----------------|


|------4-7-7-6-4-|------4-7-7-6-4-|--------2-2-1---|--------0-0-----|
|----6-----------|----6-----------|----1-4-------4-|------2-----4-2-|
|7-7-------------|7-7-------------|2-2-------------|0-0-4-----------|
|----------------|----------------|----------------|----------------|


|------4-7-7-6-4-|4-4-4-4-4-4-4-4-||
|----6-----------|----------------||
|7-7-------------|----------------||
|----------------|----------------||
            
Hard to play? Try these video lessons and learn fast. | Correct




comments powered by Disqus
↑ Back to top | Tablatures and chords are parodies/interpretations of the original songs. You may use it for private study, scholarship, research or language learning purposes only