» » »

Beatles, Boys Bass tabs (ver.3)

Artists:  A B C D E F G H I J K L M N O P Q R S T U V W X Y Z # 

Boys Bass tabs (ver.3)

Beatles Tabs
 Rating:
4/5 (4 votes)
Boys lessons Tabs too difficult? Try these video lessons and learn fast
                Boys
The Beatles
Written by Luther Dixon and Wes Farrell; released on "Please Please Me" 
album.

Great rock and roll, sung by Ringo.

Intro:
G|------- ------- ------- -------|------- ------- ------- -------|
D|-------------------------------|--------------------6---7---8--|
A|-------------------------------|-------------------------------|
E|-------------------------------|-------------------------------|



G|------- ------- ------- -------|------- ------- ------- -------|
D|9---9---9---9---9---9---9---9--|7---7---7---7---7---7---7-/-9--|
A|-------------------------------|-------------------------------|
E|-------------------------------|-------------------------------|



G|------- ------- ------- -------|------- ------- ------- -------|
D|------------------------6---7--|9---9---9---9---9---9---9---7--|
A|7---7---7---7---7---7----------|-------------------------------|
E|-------------------------------|-------------------------------|


Verse:
G|------- ------- ------- -------|------- ------- ------- -------|
D|-------------------------------|-------------------------------|
A|7------------------------------|7------------------------------|
E|-------------------------------|-------------------------------|
  I've    been    told,   when a  boy     kiss a  girl,


G|------- ------- ------- -------|------- ------- ------- -------|
D|-------------------------------|-------------------------------|
A|7------------------------------|7-------7---7-------7---7---7--|
E|-------------------------------|-------------------------------|
          take a  trip        a - round   the world,  Hey,


G|------- ------- ------- -------|------- ------- ------- -------|
D|7---7---7---7---7---7---7---7--|7---7---7---7---7---7---7-/-9--|
A|-------------------------------|-------------------------------|
E|-------------------------------|-------------------------------|
  hey,                                                hey,
          bop  -  shuop,          bop  -  bop  -  shuop

G|------- ------- ------- -------|------- ------- ------- -------|
D|-------------------------------|----------------------------7--|
A|7---7---7---7---7---7---7------|7---7---7---7---7---7---7------|
E|----------------------------7--|-------------------------------|
  hey!                                                Hey,
          bop  -  shuop,          bop  -  bop  -  shuop

G|------- ------- ------- -------|------- ------- ------- -------|
D|9---9---9---9---9---9---9---9--|7---7---7---7---7---7---7-/-9--|
A|-------------------------------|-------------------------------|
E|-------------------------------|-------------------------------|
  hey,                            yeah,           she said you do
          bop  -  shuop,          bop  -  bop  -  shuop

G|------- ------- ------- -------|------- ------- ------- -------|
D|-------------------------------|-------------------------------|
A|7---7---7---7---7---7---7---7--|-------------------------------|
E|-------------------------------|7---7---7-------7---7-------7--|


Verse:
G|------- ------- ------- -------|------- ------- ------- -------|
D|-------------------------------|-------------------------------|
A|7------------------------------|7------------------------------|
E|-------------------------------|-------------------------------|
  My      girl    says    when I      kiss her lips:


G|------- ------- ------- -------|------- ------- ------- -------|
D|-------------------------------|-------------------------------|
A|7------------------------------|7-------7-------7-------7------|
E|-------------------------------|-------------------------------|
         'Get the thrill  through fin     gertips.'   Hey,


G|------- ------- ------- -------|------- ------- ------- -------|
D|7-------7-------7---7---7---7--|7---7---7---7---7---7---7---9--|
A|-------------------------------|-------------------------------|
E|-------------------------------|-------------------------------|
  hey,                                                hey,
          bop  -  shuop,          bop  -  bop  -  shuop

G|------- ------- ------- -------|------- ------- ------- -------|
D|-------------------------------|------------------------6---7--|
A|7---7---7---7---7---7---7---7--|7---7---7---7---7---7----------|
E|-------------------------------|-------------------------------|
  hey!                                                Hey,
          bop  -  shuop,          bop  -  bop  -  shuop

G|------- ------- ------- -------|------- ------- ------- -------|
D|9---9---9---9---9---9---9---9--|7---7---7---7---7---7---7---9--|
A|-------------------------------|-------------------------------|
E|-------------------------------|-------------------------------|
  hey,                            yeah,           she said you do
          bop  -  shuop,          bop  -  bop  -  shuop

G|------- ------- ------- -------|------- ------- ------- -------|
D|-------------------------------|9---9---9---9---9---9---9---9--|
A|7---7---7---7---7---7---7---7--|-------------------------------|
E|-------------------------------|-------------------------------|
                                      Well,   I   talk about

Refrain:
G|------- ------- 7---7-- 6------|------- ------- 7---7-- 6------|
D|--------6---9---------------9--|--------6---9---------------9--|
A|7---7--------------------------|7---7--------------------------|
E|-------------------------------|-------------------------------|
  boys,                               don't   you know I  mean
          yeah,   yeah,       boys

G|------- ------- 7---7-- 6------|------- ------- ------- -------|
D|--------6---9---------------9--|-------------------------------|
A|7---7--------------------------|7---7---5---5---4---4----------|
E|-------------------------------|------------------------7---7--|
  boys?                               Well,   I   talk about  boys
          yeah,   yeah,       boys

G|------- ------- ------- -------|------- ------- ------- -------|
D|----------------5---5---4------|----------------5---5---4------|
A|--------4---7---------------7--|--------4---7---------------7--|
E|5---5--------------------------|5---5--------------------------|
      now,                            aah,
          yeah,   yeah,       boys

G|------- ------- 7---7-- 6------|------- ------- 7---7-- 6------|
D|--------6---9---------------9--|--------6---9---------------9--|
A|7---7--------------------------|7---7--------------------------|
E|-------------------------------|-------------------------------|
  boys                                Well,   I   talk a  -  bout
          yeah,   yeah,       boys

G|------- ------- ------- -------|------- ------- ------- -------|
D|----------------7---7---6------|----------------5---5---4------|
A|--------6---9---------------9--|--------4---7---------------7--|
E|7---7--------------------------|5---5--------------------------|
  boys    now,                            what a  bundle  of  joy!
          yeah,   yeah,       boys

G|------- ------- 7---7-- 6------|------- ------- ------- -------|
D|--------6---9---------------7--|9---9---9---9---9---9---9---9--|
A|7---7--------------------------|-------------------------------|
E|-------------------------------|-------------------------------|
                  All right,  George!
          yeah,   yeah
Break (solo):
G|------- ------- ------- -------|------- ------- ------- -------|
D|--------6-------9---9---7---6--|--------6-------9---9---7---6--|
A|7---7-------7------------------|7---7-------7------------------|
E|-------------------------------|-------------------------------|



G|------- ------- 7---7-- 6------|------- ------- 7---7-- 6------|
D|--------6---9---------------9--|--------6---9---------------9--|
A|7---7--------------------------|7---7--------------------------|
E|-------------------------------|-------------------------------|



G|------- ------- ------- -------|------- ------- ------- -------|
D|----------------5---5---4------|----------------5---5---4------|
A|--------4---7---------------7--|--------4---7---------------7--|
E|5---5--------------------------|5---5--------------------------|



G|------- ------- 7---7-- 6------|------- ------- 7---7-- 6------|
D|--------6---9---------------9--|--------6---9---------------9--|
A|7---7--------------------------|7---7--------------------------|
E|-------------------------------|-------------------------------|



G|------- ------- ------- -------|------- ------- ------- -------|
D|----------------7---7---6------|----------------5---5---4------|
A|--------6---9---------------9--|--------4---7---------------5--|
E|7---7--------------------------|5---5--------------------------|



G|------- ------- 7---7-- 6------|------- ------- ------- -------|
D|--------6---9---------------7--|9---9---9---9-------9---9------|
A|7---7--------------------------|-------------------------------|
E|-------------------------------|-------------------------------|


Verse:
G|------- ------- ------- -------|------- ------- ------- -------|
D|-------------------------------|-------------------------------|
A|7------------------------------|7------------------------------|
E|-------------------------------|-------------------------------|
  My      girl    says    when I      kiss her lips:


G|------- ------- ------- -------|------- ------- ------- -------|
D|-------------------------------|-------------------------------|
A|7------------------------------|7---7---7---7---7---7---7---7--|
E|-------------------------------|-------------------------------|
         'Get the thrill  through fin     gertips.'   Hey,


G|------- ------- ------- -------|------- ------- ------- -------|
D|--------7---7-----------7---7--|--------7---7---7---7---7---9--|
A|-------------------------------|-------------------------------|
E|5---------------5---5----------|5------------------------------|
  hey,                                                hey,
          bop  -  shuop,          bop  -  bop  -  shuop

G|------- ------- ------- -------|------- ------- ------- -------|
D|-------------------------------|------------------------7---8--|
A|7---7---7---7---7---7---7---7--|7---7---7---7---7---7----------|
E|-------------------------------|-------------------------------|
  hey!                                                Hey,
          bop  -  shuop,          bop  -  bop  -  shuop

G|------- ------- ------- -------|------- ------- ------- -------|
D|9---9---9---9---9---9---9---9--|7---7---7---7---7---7---7---9--|
A|-------------------------------|-------------------------------|
E|-------------------------------|-------------------------------|
  hey,                            yeah,           she said you do
          bop  -  shuop,          bop  -  bop  -  shuop

G|------- ------- ------- -------|------- ------- ------- -------|
D|-------------------------------|9-------9-------9-------9------|
A|7---7---7---7---7---7---7---7--|-------------------------------|
E|-------------------------------|-------------------------------|
                                      Well,   I   talk about

Refrain:
G|------- ------- 7---7-- 6------|------- ------- 7---7-- 6------|
D|--------6---9---------------9--|--------6---9---------------9--|
A|7---7--------------------------|7---7--------------------------|
E|-------------------------------|-------------------------------|
  boys,                               don't   you know I  mean
          yeah,   yeah,       boys

G|------- ------- 7---7-- 6------|------- ------- 7---7-- 6------|
D|--------6---9---------------9--|--------6---9---------------9--|
A|7---7--------------------------|7---7--------------------------|
E|-------------------------------|-------------------------------|
  boys?                               Well,   I   talk about  boys
          yeah,   yeah,       boys

G|------- ------- ------- -------|------- ------- ------- -------|
D|----------------5---5---4------|----------------5---5---4------|
A|--------4---7---------------7--|--------4---7---------------5--|
E|5---5--------------------------|5---5--------------------------|
      now,                            aah,
          yeah,   yeah,       boys

G|------- ------- 7---7-- 6------|------- ------- 7---7-- 7------|
D|--------6---9---------------9--|--------6---9---------------9--|
A|7---7--------------------------|7---7--------------------------|
E|-------------------------------|-------------------------------|
  boys                                Well,   I   talk a  -  bout
          yeah,   yeah,       boys

G|------- ------- ------- -------|------- ------- ------- -------|
D|----------------7---7---6------|----------------5---5---4------|
A|--------6---9---------------9--|--------4---7---------------7--|
E|7---7--------------------------|5---5--------------------------|
  boys    now,                            what a  bundle  of  joy!
          yeah,   yeah,       boys

G|------- ------- ------- -------|------- ------- ------- -------|
D|--------6-------9---9---7---6--|9---9---9---9---9---9---9---9--|
A|7---7-------7------------------|-------------------------------|
E|-------------------------------|-------------------------------|

          yeah,   yeah
Refrain:
G|------- ------- 7---7-- 6------|------- ------- 7---7-- 6------|
D|--------6---9---------------9--|--------6---9---------------9--|
A|7---7--------------------------|7---7--------------------------|
E|-------------------------------|-------------------------------|
  Boys,                               don't   you know I  mean
          yeah,   yeah,       boys

G|------- ------- 7---7-- 6------|------- ------- ------- -------|
D|--------6---9---------------9--|-------------------------------|
A|7---7--------------------------|7---7---5-------4--------------|
E|-------------------------------|------------------------7------|
  boys?                               Well,   I   talk about  boys
          yeah,   yeah,       boys

G|------- ------- ------- -------|------- ------- ------- -------|
D|----------------5---5---4------|----------------5---5---4------|
A|--------4---7---------------7--|--------4---7---------------5--|
E|5------------------------------|5---5--------------------------|
      now,                            aah,
          yeah,   yeah,       boys

G|------- ------- 7---7-- 6------|------- ------- 7---7-- 7------|
D|--------6---9---------------9--|--------6---9---------------9--|
A|7---7--------------------------|7---7--------------------------|
E|-------------------------------|-------------------------------|
                                      Well,   I   talk a  -  bout
          yeah,   yeah,       boys
fade...

Please e-mail me for any corrections, or write a comment.
            
Submit corrections

comments powered by Disqus
↑ Back to top | Beatles Bass for Boys. Lyrics for acoustic guitar and electric guitar. Tablatures and chords are parodies/interpretations of the original songs. You may use it for private study, scholarship, research or language learning purposes only