>
 >
That Boy

That Boy Bass Tabs

Beatles - That Boy chords, tabs, tablatures, lyrics

Guitar lessons | Add/correct | Request | Top 50 tabs Artists:  A B C D E F G H I J K L M N O P Q R S T U V W X Y Z 0-9

That Boy Bass Tabs – Beatles

CD, Sheet music, Poster

Do you like That Boy? Share with your friends now
Bass Tabs
Standard Tuning 
Time Signature: 12/8 time

**Listen carefully for the timing**
  
 
G|---------------------------|---------4-3---2---2-----2--|
D|--0----0---------------4-3-|--2----2--------------------|
A|---------0-3----2----2-----|----------------------4-----|
E|---------------------------|----------------------------|

	
G|-------------------------|-------------2-------------|
D|-----------------------4-|--2----------------------4-|
A|--5--------4--2----------|---------------------------|
E|-------------------------|---------------------------|

   
G|-------------------------|---------------2---------2-|
D|---------------------4-3-|--2------------------------|
A|--5-------4--2-----------|---------------------------|
E|-------------------------|---------------------------|

      
G|------------------------|-----------------2----------|
D|--0-------------------4-|---0------------------------|
A|-----------4--2---------|----------------------------|
E|------------------------|----------------------------|


G|-----------------------------|--------4-3---2-----2----|
D|--0------0-------------4-0-3-|--2--------------------4-|
A|-----------0-4----2----------|-------------------------|
E|-----------------------------|-------------------------|

   
G|-------------------------|---------------2-----------|
D|-----------------------4-|--2------------------------|
A|--5-------4--2-----------|-------------------------4-|
E|-------------------------|---------------------------|

      
G|------------------------|--------------2-----------2-|
D|--0-----------------4-3-|--2----2--------------------|
A|---------4---2----------|----------------------------|
E|------------------------|----------------------------|

G|-------------------------|---------------2-----------|
D|-----------------------4-|--0------------------------|
A|--5--------4--2----------|---------------------------|
E|-------------------------|---------------------------|

   
G|-------------------------|--------------2-------2--0-|
D|--0-----0----------------|--0---0-4---4--------------|
A|--------------0----4---0-|---------------------------|
E|-------------------------|---------------------------|

      
G|--0-------0------------0-|---------------------------|
D|------------0------------|--4-----4---------4-0------|
A|-------------------------|----------4-----------3----|
E|-------------------------|---------------------------|

G|-------------------------|----------------------------|
D|-------------4-----4-----|--0----0-0-0----0-----0-2-4-|
A|--2--------2-------------|----------------------------|
E|-------------------------|----------------------------|

      
G|--0-------0-0----0-------|----------------------------|
D|-------------------4-----|--2------2-2-------2--------|
A|-------------------------|----------------------------|
E|-------------------------|----------------------------|

G|--2-2-2---2-2-2---2-2-2---2-2-2-|--2----2------------2-|
D|--------------------------------|----------------------|
A|--------------------------------|----------------------|
E|--------------------------------|----------------------|

   
G|--------------------------|-----------------2-------2-|
D|--0---------------------4-|--2------2-----------------|
A|---------4-2-----2--------|---------------------------|
E|--------------------------|---------------------------|

G|-------------------------|------------2------4-----2-|
D|--0--------------------3-|--2----2-------------------|
A|-----------4--2----------|---------------------------|
E|-------------------------|---------------------------|

      
G|-------------------------|----------------2-----------|
D|--0----------------------|----------------------------|
A|-----------4--2----------|--0-------------------------|
E|-------------------------|----------------------------|

G|-------------------------|---------4-3-----2------2---|
D|--0-------0----------4-3-|--2----2--------------------|
A|--------4----------2-----|----------------------------|
E|-------------------------|----------------------------|

      
G|-------------------------|-----------4-3----2-----2-4-2--|
D|--0-----------------4----|--2------2---------------------|
A|----------4-2------------|-------------------------------|
E|-------------------------|-------------------------------|

G|--------------------------|-----------4-3-----2------2---|
D|--0-------------------4-3-|--2------2--------------------|
A|-----------4--2-----2-----|------------------------------|
E|--------------------------|------------------------------|

G|-------------------------|---------4-3-----2------2---|
D|--0-------0----------4-3-|--2----2--------------------|
A|--------4----------2-----|----------------------------|
E|-------------------------|----------------------------|


(((Bass is Bass)))





Comments


Popular Beatles tabs & chords
All Together Now Bass Tabs
Getting Better 1 Bass Tabs
A Taste Of Honey 2 Chords
Day Tripper 3 Chords
Help! Chords
Magical Mystery Tour Chords
Because Tabs
Come Together 2 Tabs
I Feel Fine 1 Tabs
I'll Follow The Sun Tabs


Song lyrics



↑ Back to top | Tablatures and chords are parodies/interpretations of the original songs. You may use it for private study, scholarship, research or language learning purposes only
© 2014 AZChords.com Contact us | Privacy policy | DMCA | Add/correct tabs | Request tabs | Top 50 tabs