>
 >
Aint She Sweet

Aint She Sweet Guitar Tabs

Beatles - Aint She Sweet chords, tabs, tablatures, lyrics

Guitar lessons | Add/correct | Request | Top 50 tabs Artists:  A B C D E F G H I J K L M N O P Q R S T U V W X Y Z 0-9

Aint She Sweet Guitar Tabs – Beatles

CD, Sheet music, Poster

Do you like Aint She Sweet? Share with your friends now
Bass TabsBass Tabs v2TabsTabs v2Ukulele
-------------------------------------------------------------------------------
The Beatles-Ain't She Sweet
-------------------------------------------------------------------------------

Intro
e|---2--2--2-----------------------------------------------------------------|
B|---4--4--4-----------------------------------------------------------------|
G|---2--2--2-----------------------------------------------------------------|
D|---4--4--4-----------------------------------------------------------------|
A|---2--2--2-----------------------------------------------------------------|
E|---------------------------------------------------------------------------|

Verse 1
e|--0--0--0--0---2-2-2-2-2-2-2-2--0--0--0--0---2-2-2-2-2-2-2-2---------------|
B|--0--0--0--0---4-4-4-4-4-4-4-4--0--0--0--0---4-4-4-4-4-4-4-4---------------|
G|--1--1--1--1---2-2-2-2-2-2-2-2--1--1--1--1---2-2-2-2-2-2-2-2---------------|
D|--2--2--2--2---4-4-4-4-4-4-4-4--2--2--2--2---4-4-4-4-4-4-4-4---------------|
A|--2--2--3--3---2-2-2-2-2-2-2-2--2--2--3--3---2-2-2-2-2-2-2-2---------------|
E|---------------------------------------------------------------------------|

e|--0--0--4--4---4-4-4-4-4-4-4-4--2--2--2--2--0--0--2-2-2--------------------|
B|--0--0--4--4---6-6-6-6-6-6-6-6--2--2--4--4--0--0--4-4-4--------------------|
G|--1--1--5--5---4-4-4-4-4-4-4-4--3--3--2--2--1--1--2-2-2--------------------|
D|--2--2--4--4---6-6-6-6-6-6-6-6--2--2--4--4--2--2--4-4-4--------------------|
A|--2--2--6--6---4-4-4-4-4-4-4-4--4--4--2--2--2--2--2-2-2--------------------|
E|--0--0--4--4--------------------2--2--------0--0---------------------------|

Verse 2
e|--0--0--0--0---2-2-2-2-2-2-2-2--0--0--0--0---2-2-2-2-2-2-2-2---------------|
B|--0--0--0--0---4-4-4-4-4-4-4-4--0--0--0--0---4-4-4-4-4-4-4-4---------------|
G|--1--1--1--1---2-2-2-2-2-2-2-2--1--1--1--1---2-2-2-2-2-2-2-2---------------|
D|--2--2--2--2---4-4-4-4-4-4-4-4--2--2--2--2---4-4-4-4-4-4-4-4---------------|
A|--2--2--3--3---2-2-2-2-2-2-2-2--2--2--3--3---2-2-2-2-2-2-2-2---------------|
E|---------------------------------------------------------------------------|

e|--0--0--4--4---4-4-4-4-4-4-4-4--2--2--2--2--0--0--0-0-0--------------------|
B|--0--0--4--4---6-6-6-6-6-6-6-6--2--2--4--4--0--0--0-0-0--------------------|
G|--1--1--5--5---4-4-4-4-4-4-4-4--3--3--2--2--1--1--1-1-1--------------------|
D|--2--2--4--4---6-6-6-6-6-6-6-6--2--2--4--4--2--2--2-2-2--------------------|
A|--2--2--6--6---4-4-4-4-4-4-4-4--4--4--2--2--2--2--2-2-2--------------------|
E|--0--0--4--4--------------------2--2--------0--0--0-0-0--------------------|

Bridge
e|---------------------------------------------------------------------------|
B|---------------------------------------------------------------------------|
G|---------------------------------------------------------------------------|
D|--2-2-4-5-4-2-2-4-5-4-2--------------------2-2-4-5-4-2-2-4-5-4-------------|
A|--0-0-0-0-0-0-0-0-0-0-0-2-4-5-4-2-2-4-5-4--0-0-0-0-0-0-0-0-0-0-------------|
E|------------------------0-0-0-0-0-0-0-0-0----------------------------------|

e|---2--2--2-2-2-2-2-2-2-2-2-------------------------------------------------|
B|---4--4--4-4-4-4-4-4-4-4-4-------------------------------------------------|
G|---2--2--2-2-2-2-2-2-2-2-2-------------------------------------------------|
D|---4--4--4-4-4-4-4-4-4-4-4-------------------------------------------------|
A|---2--2--2-2-2-2-2-2-2-2-2-------------------------------------------------|
E|---------------------------------------------------------------------------|

Verse 3
e|--0--0--0--0---2-2-2-2-2-2-2-2--0--0--0--0---2-2-2-2-2-2-2-2---------------|
B|--0--0--0--0---4-4-4-4-4-4-4-4--0--0--0--0---4-4-4-4-4-4-4-4---------------|
G|--1--1--1--1---2-2-2-2-2-2-2-2--1--1--1--1---2-2-2-2-2-2-2-2---------------|
D|--2--2--2--2---4-4-4-4-4-4-4-4--2--2--2--2---4-4-4-4-4-4-4-4---------------|
A|--2--2--3--3---2-2-2-2-2-2-2-2--2--2--3--3---2-2-2-2-2-2-2-2---------------|
E|---------------------------------------------------------------------------|

e|--0--0--4--4---4-4-4-4-4-4-4-4--2--2--2--2--0------------------------------|
B|--0--0--4--4---6-6-6-6-6-6-6-6--2--2--4--4--0------------------------------|
G|--1--1--5--5---4-4-4-4-4-4-4-4--3--3--2--2--1------------------------------|
D|--2--2--4--4---6-6-6-6-6-6-6-6--2--2--4--4--2--2---------------------------|
A|--2--2--6--6---4-4-4-4-4-4-4-4--4--4--2--2--2--2---------------------------|
E|--0--0--4--4--------------------2--2--------0--0--0-2-4--------------------|

Solo
e|---------------------------------------------------------------------------|
B|---------------------------------------------------------------------------|
G|---------5-7b8-b9-r8r7-5---------------------------------------------------|
D|-----5-7-----------------7-------5---7b9-7b9-9r7-5-------------------------|
A|---7-------------------------5-7---7---------------7-----------------------|
E|---------------------------7-----------------------------------------------|

e|-------------------------------2-2-2-2-2-2-2-2-2---------------------------|
B|--------------8----------------4-4-4-4-4-4-4-4-4---------------------------|
G|--------5-7/9---7-5------------2-2-2-2-2-2-2-2-2---------------------------|
D|----5-7-------------7-5-7-7-7--4-4-4-4-4-4-4-4-4---------------------------|
A|--7----------------------------2-2-2-2-2-2-2-2-2---------------------------|
E|---------------------------------------------------------------------------|

Verse 4
e|--0--0--0--0---2-2-2-2-2-2-2-2--0--0--0--0---2-2-2-2-2-2-2-2---------------|
B|--0--0--0--0---4-4-4-4-4-4-4-4--0--0--0--0---4-4-4-4-4-4-4-4---------------|
G|--1--1--1--1---2-2-2-2-2-2-2-2--1--1--1--1---2-2-2-2-2-2-2-2---------------|
D|--2--2--2--2---4-4-4-4-4-4-4-4--2--2--2--2---4-4-4-4-4-4-4-4---------------|
A|--2--2--3--3---2-2-2-2-2-2-2-2--2--2--3--3---2-2-2-2-2-2-2-2---------------|
E|---------------------------------------------------------------------------|

e|--0--0--4--4---4-4-4-4-4-4-4-4--2--2--2--2--0--0--2-2-2--------------------|
B|--0--0--4--4---6-6-6-6-6-6-6-6--2--2--4--4--0--0--4-4-4--------------------|
G|--1--1--5--5---4-4-4-4-4-4-4-4--3--3--2--2--1--1--2-2-2--------------------|
D|--2--2--4--4---6-6-6-6-6-6-6-6--2--2--4--4--2--2--4-4-4--------------------|
A|--2--2--6--6---4-4-4-4-4-4-4-4--4--4--2--2--2--2--2-2-2--------------------|
E|--0--0--4--4--------------------2--2--------0--0---------------------------|

Verse 5
e|--0--0--0--0---2-2-2-2-2-2-2-2--0--0--0--0---2-2-2-2-2-2-2-2---------------|
B|--0--0--0--0---4-4-4-4-4-4-4-4--0--0--0--0---4-4-4-4-4-4-4-4---------------|
G|--1--1--1--1---2-2-2-2-2-2-2-2--1--1--1--1---2-2-2-2-2-2-2-2---------------|
D|--2--2--2--2---4-4-4-4-4-4-4-4--2--2--2--2---4-4-4-4-4-4-4-4---------------|
A|--2--2--3--3---2-2-2-2-2-2-2-2--2--2--3--3---2-2-2-2-2-2-2-2---------------|
E|---------------------------------------------------------------------------|

e|--0--0--4--4---4-4-4-4-4-4-4-4--2--2--2--2--0--0--0-0-0--------------------|
B|--0--0--4--4---6-6-6-6-6-6-6-6--2--2--4--4--0--0--0-0-0--------------------|
G|--1--1--5--5---4-4-4-4-4-4-4-4--3--3--2--2--1--1--1-1-1--------------------|
D|--2--2--4--4---6-6-6-6-6-6-6-6--2--2--4--4--2--2--2-2-2--------------------|
A|--2--2--6--6---4-4-4-4-4-4-4-4--4--4--2--2--2--2--2-2-2--------------------|
E|--0--0--4--4--------------------2--2--------0--0--0-0-0--------------------|

Bridge
e|---------------------------------------------------------------------------|
B|---------------------------------------------------------------------------|
G|---------------------------------------------------------------------------|
D|--2-2-4-5-4-2-2-4-5-4-2--------------------2-2-4-5-4-2-2-4-5-4-------------|
A|--0-0-0-0-0-0-0-0-0-0-0-2-4-5-4-2-2-4-5-4--0-0-0-0-0-0-0-0-0-0-------------|
E|------------------------0-0-0-0-0-0-0-0-0----------------------------------|

e|---2--2--2-2-2-2-2-2-2-2-2-------------------------------------------------|
B|---4--4--4-4-4-4-4-4-4-4-4-------------------------------------------------|
G|---2--2--2-2-2-2-2-2-2-2-2-------------------------------------------------|
D|---4--4--4-4-4-4-4-4-4-4-4-------------------------------------------------|
A|---2--2--2-2-2-2-2-2-2-2-2-------------------------------------------------|
E|---------------------------------------------------------------------------|
Verse 6
e|--0--0--0--0---2-2-2-2-2-2-2-2--0--0--0--0---2-2-2-2-2-2-2-2---------------|
B|--0--0--0--0---4-4-4-4-4-4-4-4--0--0--0--0---4-4-4-4-4-4-4-4---------------|
G|--1--1--1--1---2-2-2-2-2-2-2-2--1--1--1--1---2-2-2-2-2-2-2-2---------------|
D|--2--2--2--2---4-4-4-4-4-4-4-4--2--2--2--2---4-4-4-4-4-4-4-4---------------|
A|--2--2--3--3---2-2-2-2-2-2-2-2--2--2--3--3---2-2-2-2-2-2-2-2---------------|
E|---------------------------------------------------------------------------|

e|--0--0--4--4---4-4-4-4-4-4-4-4--2--2--2--2--0--0--2-2-2--------------------|
B|--0--0--4--4---6-6-6-6-6-6-6-6--2--2--4--4--0--0--4-4-4--------------------|
G|--1--1--5--5---4-4-4-4-4-4-4-4--3--3--2--2--1--1--2-2-2--------------------|
D|--2--2--4--4---6-6-6-6-6-6-6-6--2--2--4--4--2--2--4-4-4--------------------|
A|--2--2--6--6---4-4-4-4-4-4-4-4--4--4--2--2--2--2--2-2-2--------------------|
E|--0--0--4--4--------------------2--2--------0--0---------------------------|

Verse 7
e|--0--0--0--0---2-2-2-2-2-2-2-2--0--0--0--0---2-2-2-2-2-2-2-2---------------|
B|--0--0--0--0---4-4-4-4-4-4-4-4--0--0--0--0---4-4-4-4-4-4-4-4---------------|
G|--1--1--1--1---2-2-2-2-2-2-2-2--1--1--1--1---2-2-2-2-2-2-2-2---------------|
D|--2--2--2--2---4-4-4-4-4-4-4-4--2--2--2--2---4-4-4-4-4-4-4-4---------------|
A|--2--2--3--3---2-2-2-2-2-2-2-2--2--2--3--3---2-2-2-2-2-2-2-2---------------|
E|---------------------------------------------------------------------------|

e|--0--0--4--4---4-4-4-4-4-4-4-4--2--2--2--2--0--0--0-0-0--------------------|
B|--0--0--4--4---6-6-6-6-6-6-6-6--2--2--4--4--0--0--0-0-0--------------------|
G|--1--1--5--5---4-4-4-4-4-4-4-4--3--3--2--2--1--1--1-1-1--------------------|
D|--2--2--4--4---6-6-6-6-6-6-6-6--2--2--4--4--2--2--2-2-2--------------------|
A|--2--2--6--6---4-4-4-4-4-4-4-4--4--4--2--2--2--2--2-2-2--------------------|
E|--0--0--4--4--------------------2--2--------0--0--0-0-0--------------------|

e|--0--0--4--4---4-4-4-4-4-4-4-4--2--2--2--2--0------------------------------|
B|--0--0--4--4---6-6-6-6-6-6-6-6--2--2--4--4--0------------------------------|
G|--1--1--5--5---4-4-4-4-4-4-4-4--3--3--2--2--1------------------------------|
D|--2--2--4--4---6-6-6-6-6-6-6-6--2--2--4--4--2------------------------------|
A|--2--2--6--6---4-4-4-4-4-4-4-4--4--4--2--2--2------------------------------|
E|--0--0--4--4--------------------2--2--------0------------------------------|





Comments


Popular Beatles tabs & chords
Devil In Her Heart 2 Bass Tabs
Octopus Garden Bass Tabs
Because 3 Chords
Dig It Chords
Fool On The Hill Chords
Hello Goodbye 2 Chords
Wait Chords
A Hards Day´S Night Tabs
Across The Universe 3 Tabs
Can't Buy Me Love 1 Tabs


Song lyrics



↑ Back to top | Tablatures and chords are parodies/interpretations of the original songs. You may use it for private study, scholarship, research or language learning purposes only
© 2014 AZChords.com Contact us | Privacy policy | DMCA | Add/correct tabs | Request tabs | Top 50 tabs