» » »

Ain't She Sweet Bass tabs (ver.1)

Artists:  A B C D E F G H I J K L M N O P Q R S T U V W X Y Z # 

Ain't She Sweet Bass tabs (ver.1)

Beatles
Rating:
0/5 (0 votes)

Hard to play? Try these video lessons and learn fast.
                Ain't She Sweet
The Beatles
Written by Milton Ager and Jack Yellen.

A song they played in their early years.

Intro:
G|------- ------- ------- -------|------- ------- ------- -------|
D|-------------------------------|-------------------------------|
A|-------------------------------|-------------------------------|
E|7---------------7--------------|7-------------------7---9------|
                                                      Oh,

Verse:
G|------- ------- ------- -------|------- ------- ------- -------|
D|-------------------------------|-------------------------------|
A|7-------7-------8-------8------|9-------9-------------------6--|
E|-------------------------------|----------------7---7---9------|
  ain't           she             sweet?              Well,   her
                                                          see

G|------- ------- ------- -------|------- ------- ------- -------|
D|-------------------------------|-------------------------------|
A|7-------7-------8-------8------|9-------9---------------9---8--|
E|-------------------------------|----------------7---7----------|
  wal  -  king    down    that    street              Yes,    I


G|------- ------- ------- -------|------- ------- ------- -------|
D|----------------6-------6------|----------------6---4----------|
A|7-------7----------------------|4-------4---------------7---4--|
E|-------------------------------|-------------------------------|
      ask     you         ve- ry      con  -  fi  -   dentally:


G|------- ------- ------- -------|------- ------- ------- -------|
D|4-------4----------------------|-------------------------------|
A|-------------------------------|7---------------------------6--|
E|----------------7-------7------|--------7-------7-------9------|
          ain't   shee            sweet?              Oh,

Verse:
G|------- ------- ------- -------|------- ------- ------- -------|
D|-------------------------------|-------------------------------|
A|7-------7-------8-------8------|9-------9----------------------|
E|-------------------------------|----------------7-------7------|
  ain't           she         nice?                   Well,   her
                                                          look

G|------- ------- ------- -------|------- ------- ------- -------|
D|-------------------------------|-------------------------------|
A|7-------7-------8-------8------|9-------9---------------9---8--|
E|-------------------------------|----------------7--------------|
  o   -   ver once    or      twice,                  Yes,    I


G|------- ------- ------- -------|------- ------- ------- -------|
D|----------------6-------6------|-------------------------------|
A|7-------7----------------------|4-------4-------4-------4------|
E|-------------------------------|-------------------------------|
      ask     you         ve- ry      con  -  fi  -   dentally:


G|------- ------- ------- -------|------- ------- ------- -------|
D|4-------4----------------------|-------------------------------|
A|-------------------------------|7-------7-------7-------7------|
E|----------------7-------7------|-------------------------------|
          ain't   she             nice?   Just    cast    an  eye

Bridge:
G|------- ------- ------- -------|------- ------- ------- -------|
D|6/--7---7---7---6/--7---7---7--|6/--7---7---7---6/--7---7---7--|
A|-------------------------------|-------------------------------|
E|-------------------------------|-------------------------------|
                                          in  her         direc-


G|------- ------- ------- -------|------- ------- ------- -------|
D|-------------------------------|-------------------------------|
A|7---7-----------7---7----------|7---7-----------7---7----------|
E|-------------------------------|-------------------------------|
      tion                            Oh,         me, oh,     my,


G|------- ------- ------- -------|------- ------- ------- -------|
D|7---7---7---7---7---7---7---7--|7---7---7---7---7---7---7---7\-|
A|-------------------------------|-------------------------------|
E|-------------------------------|-------------------------------|
                                      ain't   that    per-


G|------- ------- ------- -------|------- ------- ------- -------|
D|-------------------------------|-------------------------------|
A|-------------------------------|----------------------------6--|
E|7---------------7--------------|7-------7-------7---7---9------|
  fection?                                            Oh,     I

Verse:
G|------- ------- ------- -------|------- ------- ------- -------|
D|-------------------------------|-------------------------------|
A|7-------7-------8-------8------|9-------9-------------------6--|
E|-------------------------------|----------------7---7---9------|
                  re    -     peat,                   well,   you
                                                          don't

G|------- ------- ------- -------|------- ------- ------- -------|
D|-------------------------------|-------------------------------|
A|7-------7-------8-------8------|9-------9---------------9---8--|
E|-------------------------------|----------------7---7----------|
  think   that's      kind of neat?                   Yes,    I


G|------- ------- ------- -------|------- ------- ------- -------|
D|----------------6-------6------|----------------4--------------|
A|7-------7----------------------|4-------4-----------7---4---7--|
E|-------------------------------|-------------------------------|
      ask     you         ve- ry      con  -  fi  -   dentally:


G|------- ------- ------- -------|------- ------- ------- -------|
D|4-------4----------------------|-------------------------------|
A|-------------------------------|7-------7-------7-------7/-----|
E|----------------7-------7------|-------------------------------|
          ain't   shee            sweet?

Bridge (solo):
G|------- ------- ------- -------|------- ------- ------- -------|
D|6/--7-----------6/--7----------|6/--7-----------6/--7----------|
A|-------------------------------|-------------------------------|
E|-------------------------------|-------------------------------|



G|------- ------- ------- -------|------- ------- ------- -------|
D|-------------------------------|-------------------------------|
A|7---7-----------7---7----------|7---7---7---7---7---7---7------|
E|-------------------------------|-------------------------------|



G|------- ------- ------- -------|------- ------- ------- -------|
D|7---7---7---7---7---7---7---7--|7---7---7---7---7---7---7---7\-|
A|-------------------------------|-------------------------------|
E|-------------------------------|-------------------------------|



G|------- ------- ------- -------|------- ------- ------- -------|
D|-------------------------------|-------------------------------|
A|-------------------------------|----------------------------6--|
E|7---------------7--------------|7-------7-------7---7---9------|
                                                      Oh,

Verse:
G|------- ------- ------- -------|------- ------- ------- -------|
D|-------------------------------|-------------------------------|
A|7-------7-------8-------8------|9-------9---------------9---8--|
E|-------------------------------|----------------7--------------|
  ain't           she             sweet?              Well,   her
                                                          see

G|------- ------- ------- -------|------- ------- ------- -------|
D|-------------------------------|-------------------------------|
A|7-------7-------8-------8------|9-------9-------------------6--|
E|-------------------------------|----------------7---7---9------|
  wal  -  king    down    that    street              Yes,    I


G|------- ------- ------- -------|------- ------- ------- -------|
D|----------------6-------6------|-------------------------------|
A|7-------7----------------------|4-------4-------4-------4------|
E|-------------------------------|-------------------------------|
      ask     you         ve- ry      con  -  fi  -   dentally:


G|------- ------- ------- -------|------- ------- ------- -------|
D|4-------4----------------------|-------------------------------|
A|-------------------------------|7-------7----------------------|
E|----------------7-------7------|----------------7-------7------|
          ain't   shee            sweet?              Oh,

Verse:
G|------- ------- ------- -------|------- ------- ------- -------|
D|-------------------------------|-------------------------------|
A|7-------7-------8-------8------|9-------9-------------------6--|
E|-------------------------------|----------------7---7---9------|
  ain't           that        nice?                   Well,   it
                                                          look

G|------- ------- ------- -------|------- ------- ------- -------|
D|-------------------------------|-------------------------------|
A|7-------7-------8-------8------|9-------9-------------------6--|
E|-------------------------------|----------------7---7---9------|
  o   -   ver once    or      twice,                  Yes,    I


G|------- ------- ------- -------|------- ------- ------- -------|
D|----------------6-------6------|----------------4--------------|
A|7-------7----------------------|4-------4-----------7---4---7--|
E|-------------------------------|-------------------------------|
      ask     you         ve- ry      con  -  fi  -   dentally:


G|------- ------- ------- -------|------- ------- ------- -------|
D|4-------4----------------------|-------------------------------|
A|-------------------------------|7-------7---7---7-------7------|
E|----------------7-------7------|-------------------------------|
          ain't   she             nice?   Just    cast    an  eye

Bridge:
G|------- ------- ------- -------|------- ------- ------- -------|
D|6/--7-----------7---7----------|6/--7-----------6/--7----------|
A|-------------------------------|-------------------------------|
E|-------------------------------|-------------------------------|
                                          in  her         direc-


G|------- ------- ------- -------|------- ------- ------- -------|
D|-------------------------------|-------------------------------|
A|7---7-----------7---7----------|7---7-------5---4--------------|
E|-------------------------------|------------------------7------|
      tion                            Oh,         me, oh,     my,


G|------- ------- ------- -------|------- ------- ------- -------|
D|----------------7---7---7------|----------------7---7---7\-----|
A|-------------------------------|-------------------------------|
E|5---5---5---5------------------|5---5---5---5------------------|
                                      ain't   that    per-


G|------- ------- ------- -------|------- ------- ------- -------|
D|-------------------------------|-------------------------------|
A|-------------------------------|----------------------------6--|
E|7---------------7--------------|7-------7-------7-------9------|
  fection?                                            Oh,     I

Verse:
G|------- ------- ------- -------|------- ------- ------- -------|
D|-------------------------------|-------------------------------|
A|7-------7-------8-------8------|9-------9-------------------6--|
E|-------------------------------|----------------7---7---9------|
                  re    -     peat,                   well,   you
                                                          don't

G|------- ------- ------- -------|------- ------- ------- -------|
D|-------------------------------|-------------------------------|
A|7-------7-------8-------8------|9-------9-------------------6--|
E|-------------------------------|----------------7---7---9------|
  think   that's      kind of neat?                   Yes,    I


G|------- ------- ------- -------|------- ------- ------- -------|
D|----------------6-------6------|----------------6---4----------|
A|7-------7----------------------|4-------4---------------7---4--|
E|-------------------------------|-------------------------------|
      ask     you         ve- ry      con  -  fi  -   dentally:


G|------- ------- ------- -------|------- ------- ------- -------|
D|4-------4----------------------|-------------------------------|
A|-------------------------------|7-------7----------------------|
E|----------------7-------7------|----------------7-------7------|
          ain't   shee            sweet?              Oh,

Verse:
G|------- ------- ------- -------|------- ------- ------- -------|
D|-------------------------------|-------------------------------|
A|7-------7-------8-------8------|9-------9---------------9---8--|
E|-------------------------------|----------------7---7----------|
  ain't           she             sweet?              Well,   her
                                                          see

G|------- ------- ------- -------|------- ------- ------- -------|
D|-------------------------------|-------------------------------|
A|7-------7-------8-------8------|9-------9---------------9---8--|
E|-------------------------------|----------------7---7----------|
  wal  -  king    down    that    street              Well,   I


G|------- ------- ------- -------|------- ------- ------- -------|
D|----------------6-------6------|----------------6---4----------|
A|7------------------------------|4-------4---------------7---4--|
E|-------------------------------|-------------------------------|
  ask     you         ve- ry  con    -    fi- den  -  tally:


G|------- ------- ------- -------|------- ------- ------- -------|
D|4-------4----------------------|-------------------------------|
A|-------------------------------|7-------7-------7-------7------|
E|----------------7-------7------|-------------------------------|
          ain't   shee        sweet?  Well,                   I

Outro:
G|------- ------- ------- -------|------- ------- ------- -------|
D|----------------6-------6------|----------------6---4----------|
A|7------------------------------|4-------4---------------7---4--|
E|-------------------------------|-------------------------------|
  ask     you         ve- ry  con         fi- den  -  tally:


G|------- ------- ------- -------|------- ------- ------- -------|
D|4-------4----------------------|-------------------------------|
A|----------------------------7--|-------------------------------|
E|----------------7---7----------|-------------------------------|
  ain't           she         sweet?

Please e-mail me for any corrections, or write a comment.
            
Hard to play? Try these video lessons and learn fast. | Correct




comments powered by Disqus
↑ Back to top | Tablatures and chords are parodies/interpretations of the original songs. You may use it for private study, scholarship, research or language learning purposes only