>
 >
Aint She Sweet 2

Aint She Sweet 2 Bass Tabs

Beatles - Aint She Sweet 2 chords, tabs, tablatures, lyrics

Guitar lessons | Add/correct | Request | Top 50 tabs Artists:  A B C D E F G H I J K L M N O P Q R S T U V W X Y Z 0-9

Aint She Sweet 2 Bass Tabs – Beatles

CD, Sheet music, Poster

Do you like Aint She Sweet 2? Share with your friends now
Bass TabsBass Tabs v2TabsTabs v2Ukulele
AINíT SHE SWEET



VERSE


G|---------------------------------|---------------------------------|
D|-----9-\-------------------------|---------------------------------|
A|-----------------7---------------|---------------------------------|
E|---------------------------------|---------------------------------|



G|---------------------------------|---------------------------------|
D|---------------------------------|---------------------------------|
A|-7-------------------------------|---------------------------------|
E|-----------------8---------------|-7------------7--9-------7-------|



G|---------------------------------|---------------------------------|
D|---------------------------------|---------------------------------|
A|-7-------------------------------|-4-----------------------4-------|
E|-----------------4---------------|-----------------4---------------|



G|---------------------------------|---------------------------------|
D|-4-------------------------------|---------------------------------|
A|-------------------------6-------|-7-------------------------------|
E|-----------------7---------------|------8--9-------7-------9-------|



VERSE


G|---------------------------------|---------------------------------|
D|---------------------------------|---------------------------------|
A|-7-------------------------------|-------------------------9-------|
E|-----------------8---------------|-7---------------9---------------|



G|---------------------------------|---------------------------------|
D|---------------------------------|---------------------------------|
A|-7-------------------------------|---------------------------------|
E|-----------------8---------------|-7-------7-------9-------7-------|



G|---------------------------------|---------------------------------|
D|---------------------------------|---------3-------4-------6-------|
A|-7-------7-----------------------|-4-------------------------------|
E|-----------------4-------4-------|---------------------------------|



G|---------------------------------|---------------------------------|
D|-4-------------------------------|---------------------------------|
A|-------------------------6-------|-7-------5-------4---------------|
E|-----------------7---------------|-------------------------7-------|



BRIDGE


G|---------------------------------|---------------------------------|
D|----------------------4--7-------|----------------------4--7-------|
A|---------4-------7------------4--|---------4-------7---------------|
E|-5-------------------------------|-5-------------------------------|



G|---------------------------------|---------------------------------|
D|---------------------------------|---------------------------------|
A|-7-------7-----------------------|-7----7--5-------4---------------|
E|------7----------7----9--7-------|-------------------------7-------|



G|---------------------------------|---------------------------------|
D|----------------------4--7-------|-----------------7-------4-------|
A|---------4-------7---------------|---------4-----------------------|
E|-5-------------------------------|-5-------------------------------|



G|---------------------------------|---------------------------------|
D|---------------------------------|---------------------------------|
A|-7-------7-------5-------4-------|---------------------------------|
E|---------------------------------|-7---------------7----7--9-------|



VERSE


G|---------------------------------|---------------------------------|
D|---------------------------------|-----------------9-------9-------|
A|-7-------------------------------|---------9-----------------------|
E|-----------------8---------------|-7-------------------------------|



G|---------------------------------|---------------------------------|
D|---------------------------------|-----------------------9-9-------|
A|-7-------------------------------|-------------9-------------------|
E|-----------------8---------------|-7---9---------------------------|



G|---------------------------------|-------------------------6-------|
D|---------------------------------|---------3-------6---------------|
A|-7-------7-----------------------|-4-------------------------------|
E|-----------------4-------4-------|---------------------------------|



G|---------------------------------|---------------------------------|
D|-4-------------------------------|---------------------------------|
A|---------------------------------|-7-------------------------------|
E|-----------------7---------------|---------9---7-------------------|



GUITAR SOLO


G|---------------------------------|---------------------------------|
D|---------------------------------|-------------------------9-------|
A|-7-------7-----------------------|-----------------7---------------|
E|-----------------8-------8-------|-7-------9-----------------------|



G|---------------------------------|---------------------------------|
D|---------------------------------|-------------------------9-------|
A|-7-------7-----------------------|-----------------7---------------|
E|-----------------8-------8-------|-7-------9-----------------------|



G|---------------------------------|-----------------------6-6-------|
D|---------------------------------|---------3-------4---------------|
A|-7-------7-----------------------|-4-------------------------------|
E|-----------------4-------4-------|---------------------------------|



G|---------------------------------|---------------------------------|
D|-4-------4-----------------------|---------------------------------|
A|-------------------------6-------|-7-------5-------4---------------|
E|-----------------7---------------|-------------------------7-------|



BRIDGE


G|---------------------------------|---------------------------------|
D|----------------------4--7-------|----------------------7--4-------|
A|---------4-------7---------------|---------4-------7---------------|
E|-5-------------------------------|-5-------------------------------|



G|---------------------------------|---------------------------------|
D|---------------------------------|---------------------------------|
A|-7-------5-------4---------------|-----------------4-------7-------|
E|-------------------------7-------|-4-------5-----------------------|



G|---------------------------------|---------------------------------|
D|----------------------4--7-------|----------------------4--7-------|
A|---------4-------7---------------|---------4-------7---------------|
E|-5-------------------------------|-5-------------------------------|



G|---------------------------------|---------------------------------|
D|---------------------------------|---------------------------------|
A|-7-------5-------4---------------|---------------------------------|
E|-------------------------7-------|-7-------7-------7-------9-------|



GUITAR SOLO


G|---------------------------------|---------------------------------|
D|---------------------------------|---------------------------------|
A|-7-------------------------------|----------------------7--9-------|
E|-----------------8---------------|-7---------------7---------------|



G|---------------------------------|---------------------------------|
D|---------------------------------|--------------7--9-------9-------|
A|-7-------------------------------|---------9-----------------------|
E|-----------------8---------------|-7-------------------------------|



G|---------------------------------|-------------------------6-------|
D|---------------------------------|---------3-------6---------------|
A|-7-------4---------------4-------|-4-------------------------------|
E|-----------------4---------------|---------------------------------|



G|---------------------------------|---------------------------------|
D|-4-------------------------------|---------------------------------|
A|---------4-----------------------|---------------------------------|
E|-----------------7-------4-------|-0-------4-----------------------|



OUTRO


G|---------------------------------|---------------------------------|
D|---------4-----------------------|---------------------------------|
A|-4-----------------------7-------|-----------------4-------4-------|
E|---------------------------------|------5--7-----------------------|



G|---------------------------------|---------------------------------|
D|-4-------4-----------------------|---------------------------------|
A|-------------------------6-------|-7-----------4-----------7-------|
E|-----------------7---------------|---------7-------4---------------|



G|---------------------------------|---------6---9-------------------|
D|---------4-------6-------7-------|-7-h-9---------------------------|
A|---------------------------------|---------------------------------|
E|---------------------------------|---------------------------------|





Comments


Popular Beatles tabs & chords
Drive My Car 2 Bass Tabs
Getting Better 1 Bass Tabs
A Day In The Life 2 Chords
And Your Bird Can Sing 1 Chords
Babys In Black 4 Chords
Dig A Pony Chords
Happy Just To Dance With You Chords
I'm Looking Through You Chords
She's A Woman Chords
Come Together Solos Tabs


Song lyrics



↑ Back to top | Tablatures and chords are parodies/interpretations of the original songs. You may use it for private study, scholarship, research or language learning purposes only
© 2014 AZChords.com Contact us | Privacy policy | DMCA | Add/correct tabs | Request tabs | Top 50 tabs