» » »

Necromansy Tabs (ver.1)

Artists:  A B C D E F G H I J K L M N O P Q R S T U V W X Y Z # 

Necromansy Tabs (ver.1)

Bathory
Rating:
4/5 (3 votes)

Hard to play? Try these video lessons and learn fast.
                Necromancy by Bathory
Tuning: 1/2 step down


e|-------------------------------------------------------------------------|
B|-------------------------------------------------------------------------|
G|------------------------------------------------------------3------------|
D|---------------------------------------------------------5--3------------|
A|---2-3---3-5---5-7---2-3-2h3p2-------2-3---3-5---5-7-5-0-5--1------------|
E|-0-----0-----0-----0---------------0-----0-----0---------3---------------|
 |                                                                         |
e|-------------------------------------------------------------------------|
B|-------------------------------------------------------------------------|
G|------------------------------------------------------------3------------|
D|-2---------------------------------2---------------------5--3------------|
A|-2---------------------------------2---------------------5--1------------|
E|-0---------------------------------0---------------------3---------------|


e|---------------------------------|
B|---------------------------------|
G|---------------------------------| occasional variation
D|---------------------------------|
A|---2-3---3-5---5-7---2-3-0-------|
E|-0-----0-----0-----0-------2-----|





e|-----------------------------------------------------|
B|-----------------------------------------------------|
G|-----------------------------------------------------|
D|-----------------------------------------------------|
A|-3-2-0-4-------------------3-2-0-4------3------------|
E|-------2-2-2-2-2-2-2-2-2---------2-2-2--1-1-1-1-1----|
            
Hard to play? Try these video lessons and learn fast. | Correct




comments powered by Disqus
↑ Back to top | Tablatures and chords are parodies/interpretations of the original songs. You may use it for private study, scholarship, research or language learning purposes only