>
 >
Shores In Flames

Shores In Flames Guitar Tabs

Bathory - Shores In Flames chords, tabs, tablatures, lyrics

Guitar lessons | Add/correct | Request | Top 50 tabs Artists:  A B C D E F G H I J K L M N O P Q R S T U V W X Y Z 0-9

Shores In Flames Guitar Tabs – Bathory

CD, Sheet music, Poster

Do you like Shores In Flames? Share with your friends now
Tabs
SHORES IN FLAMES
           by Bathory taken from the album"Hammerheart"


Drop D Tunning

 play 4 times
|--------------------------------------------|
|--------------------------------------------|
|-------5------------------------------------|
|------------5------------------------5------|
|----------------------0---------3-----------|
|-0-------------------------3----------------|

play 3 times
|--------------------------------------------------------------|
|--------------------------------------------------------------|
|----------------5--------------------------------5------------|
|---------5---------5------5-------------5--------5------5-----|
|-----0------0---------0-------------3------3--------3---------|
|-0-------------------------------3----------------------------|

play 4 times           &n bsp;      play 1 time
|------------------|--------------------------------------------------|
|------------------|--------------------------------------------------|
|------------------|--------------------------------------------------|
|---------5--------|------4----------- 4------------4-----------4-----|
|-----2-------2----|----------2-----2-----2------2-----2-----2-----2--|
|-2----------------|---2---------2-----------2------------2-----------|

play 3 times
|----------------------------------------------------------------|
|----------------------------------------------------------------|
|-----------------5-------------------------------5--------------|
|---------5-----------5-------5-----------5-----------5-------5--|
|-----0-------0-----------0-----------3-------3-----------3------|
|-0-------------------------------3------------------------------|

play 1 time
|----------------------------------------------------------------|
|----------------------------------------------------------------|
|----------------------------------------------------------------|
|---------5---------------5---------------4---------------4------|
|-----2-------2-------2-------2-------2-------2-------2-------2--|
|-2---------------2---------------2---------------2--------------|

play 1 time
|----------------------------------------------------------------|
|----------------------------------------------------------------|
|-----------------5-------------------------------5--------------|
|---------5-----------5-------5-----------5-----------5-------5--|
|-----0-------0-----------0-----------3-------3-----------3------|
|-0-------------------------------3------------------------------|

play 1 time
|------------------------------------------------------------------------|
|------------------------------------------------------------------------|
|-----------------5-------------------------------5----------------------|
|---------5-----------5-------5-----------5-----------5-------5----------|
|-----0-------0-----------0-----------3-------3-----------3--------------|
|-0-------------------------------3-------------------------------3---2--|

play 1 time
|----------------------------------------------------------------|
|----------------------------------------------------------------|
|-----------------5-------------------------------5--------------|
|---------5-----------5-------5-----------5-----------5-------5--|
|-----0-------0-----------0-----------3-------3-----------3------|
|-0-------------------------------3------------------------------|

play 4 times           &n bsp;      play 1 time
|------------------|------------------------------------------------------------|
|------------------|------------------------------------------------------------|
|------------------|------------------------------------------------------------|
|---------5--------|-----4---------------4---------------4---------------4------|
|-----2-------2----|---------2-------2-------2-------2-------2-------2-------2--|
|-2----------------|-2-----------2---------------2---------------2--------------|

 2 times        2 times    2 times    2 times
|--------------|--------------|-------------|-------------|
|--------------|--------------|-------------|-------------|
|--------------|--------------|-------------|-------------|
|--------0-----|--------2-----|--------5----|-------4-----|
|-----2-----2--|-----2-----2--|-----2----2--|----2-----2--|
|--0-----------|--0-----------|--0----------|-0-----------|

 2 times        2 times    2 times
|--------------|--------------|-------------|
|--------------|--------------|-------------|
|--------------|--------------|-------------|
|--------0-----|--------2-----|--------5----|
|-----2-----2--|-----2-----2--|-----2----2--|
|--0-----------|--0-----------|--0----------|

  2 times        2 times       2 times      2 times
|------------------|-----------------|-----------------|----------------------|
|------------------|-----------------|-----------------|----------------------|
|---------5--------|---------7-------|---------9-------|----------10----------|
|-----5-----5---5--|-----7----7---7--|-----9-----9---9-|-----10------10---10--|
|---0---0-----0----|---0---0----0----|---0---0-----0---|---0----0-------0-----|
|-0----------------|-0---------------|-0---------------|-0--------------------|

  2 times        2 times       2 times      2 times
|------------------|-----------------|-----------------|----------------------|
|------------------|-----------------|-----------------|----------------------|
|---------5--------|---------7-------|---------9-------|----------10----------|
|-----5-----5---5--|-----7----7---7--|-----9-----9---9-|-----10------10---10--|
|---0---0-----0----|---0---0----0----|---0---0-----0---|---0----0-------0-----|
|-0----------------|-0---------------|-0---------------|-0--------------------|

ending 1 time
|-----------------------|
|-----------------------|
|-----------12----------|
|------12------12---12--|
|----0----0-------0-----|
|--0--------------------|

          &nbs p;    .  .                  .  . 2 times    .  .
       .
|-------------------------------|-----------------------------|
|-------------------------------|-----------------------------|
|-0---0-0--------5---5-5--------|-0---0-0--------5---5-5------|
|-0---0-0--------5---5-5p0------|-0---0-0--------5---5-5p0----|
|-0---0-0---0-0--3---3-3p0---0-0|-0---0-0---0-0--3---3-3p0--0-|
|-0---0-0---0-0--3---3-3p0---0-0|-0---0-0---0-0--3---3-3p0--0-|

1 tim   . .                      4 times
|-----0--------------3--|--------3--3---|
|-----5--------------3--|--------3--3---|
|-----5--------------5--|--------5--5---|
|-0--0---------2/3---5--|--2/3---5--5---|
|-0--0---0-0---2/3---3--|--2/3---3--3---|
|-0--0---0-0---2/3---3--|--2/3---3--3---|

well, heres most of the tab

later
Zack Demianczyk





Comments


Popular Bathory tabs & chords
Father To Son Bass Tabs
Blood And Ironacoustic (Intro) Tabs
Call From The Grave 1 Tabs
Necromansy Tabs
Sacrifice Tabs
Screaming Blood Monkey (Intro) Tabs
Twilight Of The Gods - Epilogue Tabs
Vinland Tabs
Vinterblot Tabs
Woman Of Dark Desires Tabs


Song lyrics



↑ Back to top | Tablatures and chords are parodies/interpretations of the original songs. You may use it for private study, scholarship, research or language learning purposes only
© 2014 AZChords.com Contact us | Privacy policy | DMCA | Add/correct tabs | Request tabs | Top 50 tabs