» » »

Enter The Eternal Fire Tabs (ver.1)

Artists:  A B C D E F G H I J K L M N O P Q R S T U V W X Y Z # 

Enter The Eternal Fire Tabs (ver.1)

Bathory
Rating:
5/5 (3 votes)

Hard to play? Try these video lessons and learn fast.
                                               Bathory
                        enter the eternal fire


Standard Tuning

intro
|----------------|----------------||--------|
|----------------|----------------||--------|
|----------------|----------------||--------|
|----------------|----5-----------||--------|
|3---5---7-------|3---3---5-------||3-------|
|1---3---5-------|1-------3-------||1-------|end

riff 1
|------------------------|-------------------------|
|------------------------|-------------------------|
|------------------------|--------------------10---|
|9---9-9-7-7-9---9-9-7-7-|9---9-9-7-7-9-10-10-8----|
|7---7-7-5-5-7---7-7-5-5-|7---7-7-5-5-7-8--8-----8-|
|------------------------|-------------------------|

verse
|------------|------------|---------------------|
|------------|------------|---------------------|
|------------|------------|---------------------|
|9-------7---|5-------4---|7-------10-10-10-9-7-|
|7-------5---|3-------2---|5-------8--8--8--7-5-|
|------------|------------|---------------------|then play riff 1 one time

|----------------|
|----------------|
|----------------|
|9-----------3---|
|7---5---3---1---|
|----3---1-------|then riff 1 again

chorus
|----------------|----------------|----------------|----------------|
|----------------|----------------|----------------|----------------|
|----------------|----------------|----------------|----------------|
|----------------|--------3-------|2-------3-------|2---------------|
|5---------------|3-------1-------|0-------1-------|0-------5---3---|
|3---------------|1---------------|----------------|--------3---1---|and riff 1 again

interlude guit 2 clean
|-------------------------|-------------------------|
|-------------------------|-------------------------|
|8--8--8--8--8--8--8--8---|5--5--5--5--5--5--5--5---|
|-7--7--7--7--7--7--7--7--|-4--4--4--4--4--4--4--4--|
|--5--5--5--5--5--5--5--5-|--2--2--2--2--2--2--2--2-|
|-------------------------|-------------------------|
|
|-------------------------|-------------------------||------|
|-------------------------|-------------------------||------|
|-------------------------|-------------------------||------|
|9-11-12------------------|9------------------------||11-11-|
|7-9--10------------------|7------------------------||9--9--|
|-------------------------|-------------------------||------|
                                                      .  .
|------------------------|------------------------|
|------------------------|------------------------|
|------------------------|------------------------|
|9-9-9-9-9-9-9-9-9-9-9-9-|9-9-9-9-9-9-9-7-7-7-7-7-|
|7-7-7-7-7-7-7-7-7-7-7-7-|7-7-7-7-7-7-7-5-5-5-5-5-|
|------------------------|------------------------|end
 m m m m m m m m m m m m  m m m m m m 

solo (guit 2 riff 1)
|-----------------|-------------------|------------------|
|-----------------|-------------------|------------------|
|9-------11-------|12---14---11-------|12---11---9-------|
|-----------------|-------------------|------------------|
|-----------------|-------------------|------------------|
|-----------------|-------------------|------------------|

|-----------------|-------------------|------------------|
|-----------------|-------------------|------------------|
|16------17-------|19-------17---16---|17---16---19------|
|-----------------|-------------------|------------------|
|-----------------|-------------------|------------------|
|-----------------|-------------------|------------------|end
                                                 +1 bend

outro
|-------------------------------------|
|-------------------------------------|
|---------10-10-9-9-9-7-7-7-5-5-5-7-7-|
|9--------8--8--7-7-7-5-5-5-3-3-3-5-5-|
|7------------------------------------|
|-------------------------------------|end
            
Hard to play? Try these video lessons and learn fast. | Correct




comments powered by Disqus
↑ Back to top | Tablatures and chords are parodies/interpretations of the original songs. You may use it for private study, scholarship, research or language learning purposes only