» » »

Bathory, Necromansy Bass tabs (ver.1)

Artists:  A B C D E F G H I J K L M N O P Q R S T U V W X Y Z # 

Necromansy Bass tabs (ver.1)

Bathory Tabs
Rating:
5/5 (1 vote)
Hard to play? Try these video lessons and learn fast.
                Bassist: Rickard Bergman
Tuning: Half Step Down

Gb|---------------------------------------------------------------------|
Db|---------------------------------------------------------------------|
Ab|---------------------------------------------------------------------|
Eb|-0---------------------------------0---------------------3-6---------|

Occasional Variation
Gb|---------------------------------------------| 
Db|---------------------------------------------|
Ab|---------------------------------------------|
Eb|-0-7-8---0-8-10---0-10-12---0-7-8-5----2-----|

Ending
Gb|-----------------------------------------------------|
Db|-----------------------------------------------------|
Ab|-3-------------------------3-------------------------|
Eb|-------2-2-2-2-2-2-2-2-2---------2-2-2--1-1-1-1-1----|

That's pretty much it, please rate and enjoy. 
            

comments powered by Disqus
↑ Back to top | Bathory Bass for Necromansy. Lyrics for acoustic guitar and electric guitar. Tablatures and chords are parodies/interpretations of the original songs. You may use it for private study, scholarship, research or language learning purposes only