» » »

Band Of Skulls, Friends Bass tabs (ver.1)

Artists:  A B C D E F G H I J K L M N O P Q R S T U V W X Y Z # 

Friends Bass tabs (ver.1)

Band Of Skulls Tabs
Rating:
0/5 (0 votes)
Friends lessons Tabs too difficult? Try these video lessons and learn fast
                


Tuning: standard


   INTRO (0:11)
G|----------------------------------------------------------|
D|----------------------------------------------------------|
A|----------------------------------------------------------|
E|--4(x8)--4(x8)--6(x8)--7(x8)--7(x8)--4(x8)--4(x8)--6(x8)--|

   VERSE (0:35)
G|------------------------------------------------------------------------|
D|------------------------------------------------------------------------|
A|------------------------------------------------------------------------|
E|--7(x8)--7(x8)--4(x8)--4(x8)--6(x8)--7(x8)--7(x8)--4(x8)--4(x8)--6(x8)--|

   CHORUS (1:07)
G|------------------|
D|------------------|
A|----------7(x32)--|
E|--7(x32)----------|

   (1:23)
G|-------------------------------------|
D|-------------------------------------|
A|-------------------------------------|
E|--7(x8)--7(x8)--4(x8)--4(x8)--6(x8)--|

   VERSE 2 (1:39)
G|------------------------------------------------------------------------|
D|------------------------------------------------------------------------|
A|------------------------------------------------------------------------|
E|--7(x8)--7(x8)--4(x8)--4(x8)--6(x8)--7(x8)--7(x8)--4(x8)--4(x8)--6(x8)--|

   CHORUS (2:11)
G|----------------------------------|
D|----------------------------------|
A|----------7(x32)----------7(x32)--|
E|--7(x32)----------7(x32)----------|

   OUTRO (2:51)
G|-------------------------------------------------------|
D|-------------------------------------------------------|
A|----------7(x24)-----------------7(x24)----------------|
E|--7(x32)----------6(x8)--7(x32)----------6(x8)--7(x8)--|


| /  slide up
| \  slide down
| h  hammer-on
| p  pull-off
| ~  vibrato
| +  harmonic
| x  Mute note
            

comments powered by Disqus
↑ Back to top | Band Of Skulls Bass for Friends. Lyrics for acoustic guitar and electric guitar. Tablatures and chords are parodies/interpretations of the original songs. You may use it for private study, scholarship, research or language learning purposes only