» » »

Band Of Skulls, Friends Tabs (ver.1)

Artists:  A B C D E F G H I J K L M N O P Q R S T U V W X Y Z # 

Friends Tabs (ver.1)

Band Of Skulls Tabs
 Rating:
4/5 (4 votes)
Friends lessons Tabs too difficult? Try these video lessons and learn fast
1
                Band Of Skulls - Friends

I Tab
Tuning: standard

Intro & Verse
e|-------------------------------------------|
B|-------------------------------------------|
G|-------------------------------------------|
D|-------------------------------------------|   x3
A|---9-------9-------6-------6-------8-------|
E|---7(x8)---7(x8)---4(x8)---4(x8)---6(x8)---|

Chorus (0:49)
e|-----------------------------|
B|-----------------------------|
G|-----------------------------|
D|---9--------2--------8-------|
A|---9--------2--------8-------|
E|---7(x32)---0(x24)---6(x8)---|

Verse 2 (1:06)
e|-------------------------------------------|
B|-------------------------------------------|
G|-------------------------------------------|
D|-------------------------------------------|   x3
A|---9-------9-------6-------6-------8-------|
E|---7(x8)---7(x8)---4(x8)---4(x8)---6(x8)---|

Chorus (1:56)
e|-----------------------------|
B|-----------------------------|
G|-----------------------------|
D|---9--------2--------8-------|   x2
A|---9--------2--------8-------| 
E|---7(x32)---0(x24)---6(x8)---|

Ad lib(2:29)
e|-----------|
B|-----------|
G|-----------|
D|-----------|
A|---9-------|
E|---7(x8)---|

Bridge(2:33)
e|-----------------------------|
B|------------0----------------|
G|---8--------1----------------|
D|---9--------2--------8-------|
A|---9--------2--------8-------|   x2
E|---7(x32)---0(x24)---6(x8)---|

Outro(3:06)
e|-----------|
B|-----------|
G|-----------|
D|-----------|
A|---9-------|
E|---7(x8)---|

II Tab
Tuning: drop D

Intro & Verse
e|-------------------------------------------|
B|-------------------------------------------|
G|-------------------------------------------|
D|-------------------------------------------|   x3
A|---9-------9-------6-------6-------8-------|
D|---9(x8)---9(x8)---6(x8)---6(x8)---8(x8)---|

Chorus (0:49)
e|-----------------------------|
B|-----------------------------|
G|-----------------------------|
D|---9--------2--------8-------|
A|---9--------2--------8-------|
D|---9(x32)---2(x24)---8(x8)---|

Verse 2 (1:06)
e|-------------------------------------------|
B|-------------------------------------------|
G|-------------------------------------------|
D|-------------------------------------------|   x3
A|---9-------9-------6-------6-------8-------|
D|---9(x8)---9(x8)---6(x8)---6(x8)---8(x8)---|

Chorus (1:56)
e|-----------------------------|
B|-----------------------------|
G|-----------------------------|
D|---9--------2--------8-------|   x2
A|---9--------2--------8-------| 
D|---9(x32)---2(x24)---8(x8)---|

Ad lib(2:29)
e|-----------|
B|-----------|
G|-----------|
D|-----------|
A|---9-------|
D|---9(x8)---|

Bridge(2:33)
e|-----------------------------|
B|-----------------------------|
G|------------9----------------|
D|---9--------9--------8-------|
A|---9--------7(x24)---8-------|   x2
D|---9(x32)------------8(x8)---|

Outro(3:06)
e|-----------|
B|-----------|
G|-----------|
D|-----------|
A|---9-------|
D|---9(x8)---|
            
Submit corrections

comments powered by Disqus
↑ Back to top | Band Of Skulls Tabs for Friends. Lyrics for acoustic guitar and electric guitar. 1 Tablatures and chords are parodies/interpretations of the original songs. You may use it for private study, scholarship, research or language learning purposes only