» » »

Cold Fame Tabs (ver.1)

Artists:  A B C D E F G H I J K L M N O P Q R S T U V W X Y Z # 

Cold Fame Tabs (ver.1)

Band Of Skulls
Rating:
0/5 (0 votes)

Hard to play? Try these video lessons and learn fast.
                Arist: Band of Skulls
Tuning: EADGBe

Song is in standard tuning. I know it probably isn't correct but it sound close 
enough. It basicly exists of two parts. Just improvise on it a bit.


e|--6--------6----6-----6---6-----6-----------6----|
B|--6--------6----10----10--8-----6-----------6----|
G|--6--------6----6-----6---6-----6----7-7-7--6----|
D|--9--------9----9-----9---9-----6----9-9-7--6----|
A|--10-------10---x-----x---x-----9-----------9----|
E|--6--------6----6-----6---6-----10----------10---| (repeat a lot)


(I know my place..)
e|----------------------2---|
B|--5------3---3--3-----3---|
G|--6------4---5--4-----2---|
D|--7------5---x--5-----0---|
A|--7------5---5--5---------|
E|--------------------------| 2x


Then at the end strum these(cold fame in my brain):
e|--6-------------6---------|
B|--6-------------6---------|
G|--6-------------6---------|
D|--6-------------6---------|
A|--9-------------9---------|
E|--10------------10--------|
            
Hard to play? Try these video lessons and learn fast. | Correct




comments powered by Disqus
↑ Back to top | Tablatures and chords are parodies/interpretations of the original songs. You may use it for private study, scholarship, research or language learning purposes only