>
 >
Probinsyana

Probinsyana Bass Tabs

Bamboo - Probinsyana chords, tabs, tablatures, lyrics

Guitar lessons | Add/correct | Request | Top 50 tabs Artists:  A B C D E F G H I J K L M N O P Q R S T U V W X Y Z 0-9

Probinsyana Bass Tabs – Bamboo

CD, Sheet music, Poster

Do you like Probinsyana? Share with your friends now
Bass TabsBass Tabs v2ChordsTabsTabs v2Ukulele


/ = slide up
\ = slide down
h = hammer on
p = pull-off
x = dead string



Intro:

   D

G|------------------|
D|------------3-----|
A|-5-5-5-5--5---x-3-|
E|------------------| REAPEAT 4 TIMES!!

   G  F  G  F  G   C  Bb  

G|-------------------------------|
D|-------------------------------|
A|-------------------------------|
E|-3--1--3--1--3---8--6--6-x-6-6-|

   G  F  G  F  G   C  Bb 

G|------------------------------------|
D|------------------------------------|
A|----------------------------8-------|
E|-3--1--3--1--3---8--6--8/10---10-8\-|

   G  F  G  F  G   C  Bb 

G|-------------------------------|
D|-------------------------------|
A|-------------------------------|
E|-3--1--3--1--3---8--6--6-x-6-6-|

   G  F  G  F  G   C  Bb 

G|-------------------------------------|
D|---------------------------3---------|
A|-----------------------3/5---5-------|
E|-3--1--3--1--3---8--6----------3//10-|

   D

G|------------------------------------------|
D|------------------------------------------|
A|-5-5-5-5--5-5--5-5--5-5--5-5-5-5--5-5--5--|
E|------------------------------------------|


G|----------------------------------------10h11-------|
D|-4-0-5-0-7--7-7--7-7-7-7-7-7---12-12-12-------12----|
A|-------------------------------------------------12-|
E|----------------------------------------------------|


Verse 1:

   G7             C7              G7              C7

G|--------------|----------------|-4------------|-3---------------|
D|--------------|----------------|--------------|-----------------|
A|--------------|-3--------------|--------------|-3---------------|
E|-3------------|----------------|-3------------|-----------------|


Syncopated Tritones part:

   G7                             C7       
   
G|-----------------------------------------------------------|
D|-----------------------------------------------------------|
A|-10----10--9---9--8---8--7---7--3---3--2---2--1---1--0---0-|
E|----10-------9------8------7------3------2------1------0---|

   G7                             C7

G|--------------------------------------------------------|
D|--------------------------------------------------------|
A|-10----10--9---9--8---8--7---7--3---3--2---2--1-------0-|
E|----10-------9------8------7------3------2------1-0-3---|


Refrain:

   D

G|-------------------------------------------|
D|-------------------------------------------|
A|-5-5-5-5--5--5-5--0h3-0-4-0-5-5-5-5--5-5-5-|
E|-------------------------------------------|


G|-----------------------------------------------------------------|
D|-4-0-5-0-7-7-7--7-7--7-7-7-7---12-12-12--12-12-----12------------|
A|------------------------------------------------12----12\5-------|
E|-----------------------------------------------------------x-10\-|


Verse 2:

   G7                C7                G7               C7 

G|-----------------|------4----------|----------------|-------3----------------|
D|-----------------|-----------------|-----5----3-----|------------------------|
A|---------------2-|-3-------x-------|--------5---5-4-|-3---x----x-------x-/7\-|
E|-3------x5--3----|-----------0-1-2-|-3--------------|------------0-1-2-------|
                          ^                ^                ^ ^
                         pop              pop            slap pop      
                    
                                                             &        
    

Syncopated Tritones part:

   G7                             C7

G|-----------------------------------------------------------|
D|-----------------------------------------------------------|
A|-10----10--9---9--8---8--7---7--3---3--2---2--1---1--0---0-|
E|----10-------9------8------7------3------2------1------0---|

   C7                      C7

G|--------------------------------------------------------|
D|--------------------------------------------------------|
A|-10----10--9---9--8---8--7---7--3---3--2---2--1-------0-|
E|----10-------9------8------7------3------2------1-0-3---|


Refrain:

   D

G|-------------------------------------------|
D|-------------------------------------------|
A|-5-5-5-5--5--5-5--0h3-0-4-0-5-5-5-5--5-5-5-|
E|-------------------------------------------|


G|-------------------------------------10h11-------------|
D|-4-0-5-0-7-7-7--7-7--7-7-7-7---12-12-------12----------|
A|----------------------------------------------12-------|
E|-------------------------------------------------10-10-|


Chorus:

   G  F  G  F  G   C  Bb  

G|-------------------------------|
D|-------------------------------|
A|-------------------------------|
E|-3--1--3--1--3---8--6--6-x-6-6-|

   G  F  G  F  G   C  Bb 

G|------------------------------------|
D|------------------------------------|
A|----------------------------8-------|
E|-3--1--3--1--3---8--6--8/10---10-8\-|

   G  F  G  F  G   C  Bb 

G|-------------------------------|
D|---------------------------8-8-|
A|-------------------------------|
E|-3--1--3--1--3---8--6--6-x-----|

   G  F  G  F  G   C  Bb  

G|-------------------------------|
D|-------------------------------|
A|-------------------------------|
E|-3--1--3--1--3---8--6--6-x-6-6-|


Back to intro:

   D

G|------------------------------------------|
D|------------------------------------------|
A|-5-5-5-5-5--5-5--5-5--5-5-5-5-5--5-5--5-5-|
E|------------------------------------------|

G|-------------------------------------|
D|-7-7-7-7-7--7-7--7-7--12-12-12-12-12-|
A|-------------------------------------|
E|-------------------------------------|


Guitar Solo:

   G7              C7            G7               C7    

G|-----------------------------------------------------------|
D|-5--4--------------4-5--x6-7-5-5--4------------------------|
A|------x5-x2-3-4--5------------------x5-x---2-3--5-4-x3---2-|
E|-----------------------------------------3-----------------|

    A7

G|-----------------------------------------------------|
D|-----------5-6-7-6-5----------------2-3-4-5--2-3-4-5-|
A|---3-5-6-7-----------6-5-4-3-4-----------------------|
E|-5-----------------------------5---------------------|

    A

G|--------------|
D|--------------|
A|--0-----------|
E|--------------|


Interlude:

  G  F  G  F  G   C  Bb  

G|-------------------------------|
D|-------------------------------|
A|-------------------------------|
E|-3--1--3--1--3---8--6--6-x-6-6-|

   G  F  G  F  G   C  Bb 

G|------------------------------------|
D|------------------------------------|
A|----------------------------8-------|
E|-3--1--3--1--3---8--6--8/10---10-8\-|

   G  F  G  F  G   C  Bb 

G|-------------------------------|
D|---------------------------8-8-|
A|-------------------------------|
E|-3--1--3--1--3---8--6--6-x-----|

   G  F  G  F  G   C  Bb 

G|-------------------------------------|
D|---------------------------3---------|
A|-----------------------3/5---5-------|
E|-3--1--3--1--3---8--6----------3//10-|

   D

G|------------------------------------------|
D|------------------------------------------|
A|-5-5-5-5--5-5--5-5--5-5--5-5-5-5--5-5--5--|
E|------------------------------------------|


G|----------------------------10h11------------------|
D|-x5-0-7-7-7--7-7-7-7-----12-------12---------------|
A|-------------------------------------12-11-10------|
E|----------------------------------------------10-\-|


Verse 3:

   G7                C7                G7             C7

G|-----------------|------4----------|--------------|-------3--------------|
D|-----5-----------|-----------------|-----5--------|----------------------|
A|---------------5-|-3-------x-------|-------x1-2-5-|-3---x----x-------/10-|
E|-3------x5--3----|-----------0-1-2-|-3------------|------------0-1-2-----|
       ^                  ^                ^              ^ ^
      pop                pop              pop          slap pop


Syncopated Tritones part:


   G7                             C7

G|-----------------------------------------------------------|
D|-----------------------------------------------------------|
A|-10----10--9---9--8---8--7---7--3---3--2---2--1---1--0---0-|
E|----10-------9------8------7------3------2------1------0---|

   G7                             C7

G|--------------------------------------------------------|
D|--------------------------------------------------------|
A|-10----10--9---9--8---8--7---7--3---3--2---2--1-------0-|
E|----10-------9------8------7------3------2------1-0-3---|


Refrain:

   D

G|-----------------------------------------|
D|-----------------------------------------|
A|-5-5-5-5--5-5--5-5--5-5--5-5-5-5--5-5--5-|
E|-----------------------------------------|


G|---------------------|
D|-x5-0-7-7-7--7-7-7-7-|
A|---------------------|
E|---------------------|

   wah-wah...

G|-------------------------------|
D|-12-12-12-12-12-12-12-12-12-12-|
A|-------------------------------|
E|-------------------------------|


Chorus:

  G  F  G  F  G   C  Bb  

G|-------------------------------|
D|-------------------------------|
A|-------------------------------|
E|-3--1--3--1--3---8--6--6-x-6-6-|

   G  F  G  F  G   C  Bb 

G|------------------------------------|
D|------------------------------------|
A|----------------------------8-------|
E|-3--1--3--1--3---8--6--8/10---10-8\-|

   G  F  G  F  G   C  Bb 

G|-------------------------------|
D|-------------------------------|
A|-------------------------------|
E|-3--1--3--1--3---8--6--6-x-6-6-|

   G  F  G  F  G   C  Bb 

G|-----------------------|
D|-----------------------|
A|-----------------------|
E|-3--1--3--1--3---8--6--|


Outro:

   Bb    wah-wah......

G|-----------------------------------------|
D|-----------------------------------------|
A|-----------------------------------------|
E|-6-6-6-6-6-6-6-6-6-6-6-6-6-6-6-6-6-6-6-6-|


G|------------------|
D|-----2-3------3---|
A|-3-5------3-5-----|
E|----------------3-|





Comments


Popular Bamboo tabs & chords
Noypi 7 Bass Tabs
Umagang Kay Ganda 1 Chords
Wake Up Call Chords
As The Music Plays The Band 2 Tabs
Hallelujah Tabs
Masaya (Solo) Tabs
Noypi 4 Tabs
Peace Man 1 Tabs
Pride And Flame Tabs
War Of Hearts And Minds 1 Tabs


Song lyrics



↑ Back to top | Tablatures and chords are parodies/interpretations of the original songs. You may use it for private study, scholarship, research or language learning purposes only
© 2014 AZChords.com Contact us | Privacy policy | DMCA | Add/correct tabs | Request tabs | Top 50 tabs