» » »

Bamboo, Probinsyana Tabs (ver.2)

Artists:  A B C D E F G H I J K L M N O P Q R S T U V W X Y Z # 

Probinsyana Tabs (ver.2)

Bamboo Tabs
Rating:
0/5 (0 votes)
Probinsyana lessons Tabs too difficult? Try these video lessons and learn fast
                5:40 Pm - 5/22/07 .. Guys! Probinsyana by Bamboo.. Im 99.9% suRe about this, inCLuding 
soLo part..(yEheY!!)... Its a Very cooL soNg, HopE yoU Like iT! Tnx nGa Pla KanG JanJade 
sA Pg sUggsesT nA i PALM MUTE yOnG Intro.. hehe.. Tnx JAdE! Hi riN sA LahaT nG nsA NursiNg DePT.
sA CMU ... nD LasT, Hi sA akIng PRobinsYaNanG PRinCEsSa..( Kristeen Jean Babano)...Pls RatE! Tnx!



INTRO:

       D       slide to F# then C (PaLM MUTe)
e|----------------------------------------------|
B|----------------------------------------------|
G|----------------------------------------------|
D|---7--7--7--7--7—-7/10------------------------| 2x
A|---5--5--5--5--5—-5/8-------------10----------|
E|----------------------------------8-----------|
       D       slide to F# then C
e|----------------------------------------------|
B|----------------------------------------------|
G|---7--7--7--7--7—-7/10------------------------|
D|----------------—-----------------10----------| 2x
A|---5--5--5--5--5—-5/8-------------------------|
E|----------------------------------8-----------|
   G and F (slide – slide lang) tapos C and Bb
e|----------------------------------------------|
B|----------------------------------------------|
G|-----------------------5---3------------------|
D|---5---3---5---3---5—--3---3------------------| 4x
A|---5---3---5---3---5—--3---1------------------|
E|---3---1---3---1---3--------------------------|

e|----------------------------------------------|
B|----------------------------------------------|
G|----------------------------------------------|
D|---7~-------—-7/10----------------------------| 4x
A|---5~-------—-5/8---------------10------------|
E|--------------------------------8-------------|

Verse:
D – C ( F u Only know the song, 1 strum only in verse )

Ang probinsyana ay di basta-basta
Mahirap bolahin, kailangan haranahin

e|----------------------------------------------|
B|----------------------------------------------|
G|----------------------------------------------|
D|---7--5--7--5--------—------------------------|
A|---5--3--5--3--------—------------------------|
E|----------------------------------------------|

( Here comes the REGGAE part )
D                      C
Ang kanyang lakad, mabibighani ka
F#          G
Di biro, babaeng probinsyana

e|------------------------------------|
B|------------------------------------|
G|------------------------------------|
D|---7--5-----10---12----—------------|
A|---5--3-----8----10--—--------------|
E|------------------------------------|

REFRAIN:

 D        F#-C  D          F#-C
Mahirap amuhin ang probinsyana
 D        F#-C  D        (proceed to verse 2)
Pag napaibig, wala kang duda

e|------------------------------------|
B|------------------------------------|
G|------------------------------------|
D|---7--—-7/10------------------------|2x
A|---5--—-5/8-------------10----------|
E|------------------------8-----------|

Verse 2:
Pag sa umaga pisngi namumutla
Pag nakasaya maaakit ka

e|----------------------------------------------|
B|----------------------------------------------|
G|----------------------------------------------|
D|---7--5--7--5--------—------------------------|
A|---5--3--5--3--------—------------------------|
E|----------------------------------------------|

( REGGAE PART )
D                      C
Ang kanyang lakad, mabibighani ka
F#         G
Di biro, babaeng probinsyana

e|------------------------------------|
B|------------------------------------|
G|------------------------------------|
D|---7--5-----10---12----—------------|
A|---5--3-----8----10--—--------------|
E|------------------------------------|


( Repeat Refrain )

Instrumental:

Probinsyana (1st)  - Probinsyana (3rd)
  G and F (slide – slide lang) tapos C and Bb
e|----------------------------------------------|
B|----------------------------------------------|
G|-----------------------5---3------------------|
D|---5---3---5---3---5—--3---3------------------| 4x
A|---5---3---5---3---5—--3---1------------------|
E|---3---1---3---1---3--------------------------|

HellO.. .hello . .
e|----------------------------------------------|
B|----------------------------------------------|
G|----------------------------------------------|
D|---7--7--7--7--7—-7/10------------------------| 2x
A|---5--5--5--5--5—-5/8-------------10----------|
E|----------------------------------8-----------|

Hello. . .hello . .
e|----------------------------------------------|
B|----------------------------------------------|
G|---7--7--7--7--7—-7/10------------------------|
D|----------------—-----------------10----------| 2x
A|---5--5--5--5--5—-5/8-------------------------|
E|----------------------------------8-----------|

SoLo:

e|-------------------------------------|
B|------------6—6h8p6------------------|
G|-----3h5/7-----------7--5—3h5--------|
D|---5---------------------------5-----|2x
A|-------------------------------------|
E|-------------------------------------|

e|-------------------------------------|
B|------------8-8h10p8-----------------|
G|-----5h7/9------------9--7—5h7-------|
D|---7-----------------------------7---|
A|-------------------------------------|
E|-------------------------------------|

Trumpet part…
e|---------------------|
B|---------------------|
G|---------------------|
D|--77/10/12-(2X)-7----|
A|--55/8/10-------7----|
E|----------------5----|

Instrumental part:

   G and F (slide – slide lang) tapos C and Bb
e|----------------------------------------------|
B|----------------------------------------------|
G|-----------------------5---3------------------|
D|---5---3---5---3---5—--3---3------------------| 4x
A|---5---3---5---3---5—--3---1------------------|
E|---3---1---3---1---3--------------------------|

e|----------------------------------------------|
B|----------------------------------------------|
G|----------------------------------------------|
D|---7~-------—-7/10----------------------------| 4x
A|---5~-------—-5/8---------------10------------|
E|--------------------------------8-------------|

Verse 3:

Aking diwata saan ka pumunta
Lumuwas ng Maynila dala ng pangarap niya

e|------------------------------------|
B|------------------------------------|
G|------------------------------------|
D|---7--5--7--5--------—--------------|
A|---5--3--5--3--------—--------------|
E|------------------------------------|

     ( ReGGAE!! )
D                      C
Ang kanyang lakad mabibighani ka
F#          G
Nasaan na aking Maria CLaRa!!

e|------------------------------------|
B|------------------------------------|
G|------------------------------------|
D|---7--5-----10---12----—------------|
A|---5--3-----8----10--—--------------|
E|------------------------------------|

( RepEat ReFrain )

Outro:

Probinsyana1s(1st) – Probinsyana…(3rd)
    G and F (slide – slide lang) tapos C and Bb
e|----------------------------------------------|
B|----------------------------------------------|
G|-----------------------5---3------------------|
D|---5---3---5---3---5—--3---3------------------| 4x
A|---5---3---5---3---5—--3---1------------------|
E|---3---1---3---1---3--------------------------|

Tapos Na!....6:24 PM – 5/22/07
            

comments powered by Disqus
↑ Back to top | Bamboo Tabs for Probinsyana. Lyrics for acoustic guitar and electric guitar. Tablatures and chords are parodies/interpretations of the original songs. You may use it for private study, scholarship, research or language learning purposes only