>
 >
Kalayaan

Kalayaan Bass Tabs

Bamboo - Kalayaan chords, tabs, tablatures, lyrics

Guitar lessons | Add/correct | Request | Top 50 tabs Artists:  A B C D E F G H I J K L M N O P Q R S T U V W X Y Z 0-9

Kalayaan Bass Tabs – Bamboo

CD, Sheet music, Poster

Do you like Kalayaan? Share with your friends now
Bass TabsBass Tabs v2ChordsChords v2TabsUkulele
Song : Kalayaan
Artist : Bamboo

Kalayaan Bass Line

Tuning: EADG (Standard)

Intro :
Laid down and beat down....
G|--------------------------------------------------------------------------|
D|--------------------------------------------------------------------------|
A|--------------------------------------------------------------------------|
E|--12s5-5-5--5-5--5-5--5-5-------------------------------------------------|

Verse :
So Iíll take you deep cover son....
G|--------------------------------------------------------------------------|
D|------------5-------------------------------------------------------------|
A|---------3----3----------------10---3-------------------------------------|
E|--5-5--5------------5-5---5s8---------------------------------------------|

Refrain :
Pwede bang malaman kung saan patungo ang daan....
G|--------------------------------------------------------------------------|
D|-----5-7------------------------------------------------------------------|
A|--------------------------------------------------------------------------|
E|--5-------x--5--x--5--x--5--x--555----------------------------------------|

Sa gitna ng gulo....
G|--------------------------------------------------------------------------|
D|--------------------------------------------------------------------------|
A|--------------------------------------------------------------------------|
E|--0000000000--0---4--4444444444-------------------------------------------|

Chorus :
At ngayon tilay malapit na ang Kalayaan
G|--------------------------------------------------------------------------|
D|--------------------------------------------------------------------------|
A|-----------3-3---333------------------------------------------------------|
E|--5-5555555-------------0-1-22-3-333-333-333--3s12-1212121212121212-------|

Bridge :
If you could only see....
G|--------------------------------------------------------------------------|
D|--------------------------------------------------------------------------|
A|-----3-2--------3-2s8--7-7s10--9-5-4-4s7-6-2------------------------------|
E|--5------1-1s5------------------------------------------------------------|


Repeat Intro :
G|--------------------------------------------------------------------------|
D|--------------------------------------------------------------------------|
A|--------------------------------------------------------------------------|
E|--5-5--5-5--5-5--5-5------5/12\5------------------------------------------|

So itís out of my hands now
G|--------------------------------------------------------------------------|
D|------------5-------------------------------------------------------------|
A|---------3----3----------------10---3-------------------------------------|
E|--5-5--5------------5-5---5s8---------------------------------------------|

Repeat Refrain :
Pwede bang malaman kung saan patungo ang daan....
G|--------------------------------------------------------------------------|
D|-----5-7------------------------------------------------------------------|
A|--------------------------------------------------------------------------|
E|--5-------x--5--x--5--x--5--x--555----------------------------------------|

Repeat Chorus x2 :

At ngayon tilay malapit na ang Kalayaan
G|--------------------------------------------------------------------------|
D|--------------------------------------------------------------------------|
A|-----------3-3---333------------------------------------------------------|
E|--5-5555555-------------0-1-22-3-333-333-333--3s12-1212121212121212-------|

Outro :
*Repeat this part x2*
G|--------------------------------------------------------------------------|
D|--------------------------------------------------------------------------|
A|-----3-2--------3-2s8--7-7s10--9-5-4-4s7-6-2------------------------------|
E|--5------1-1s5------------------------------------------------------------|

G|--------------------------------------------------------------------------|
D|--------------------------------------------------------------------------|
A|--------------------------------------------------------------------------|
E|--55555555555----5--------------------------------------------------------|
(laruin nyo lang ung "A" hanggang sa matapos ang rolling sabay bagsak ng "A")





Comments


Popular Bamboo tabs & chords
Mr Clay Bass Tabs
Truth Chords
Wake Up Call Chords
As The Music Plays The Band 4 Tabs
Break On The Tought Tabs
Kailan Tabs
Little Child Tabs
Much Has Been Said Intro Tabs
Peace Man Intro Tabs
Pride And The Flame Ukulele


Song lyrics



↑ Back to top | Tablatures and chords are parodies/interpretations of the original songs. You may use it for private study, scholarship, research or language learning purposes only
© 2014 AZChords.com Contact us | Privacy policy | DMCA | Add/correct tabs | Request tabs | Top 50 tabs