» » »

Bamboo, Kalayaan Tabs (ver.1)

Artists:  A B C D E F G H I J K L M N O P Q R S T U V W X Y Z # 

Kalayaan Tabs (ver.1)

Bamboo Tabs
 Rating:
4.3/5 (6 votes)
Kalayaan lessons Tabs too difficult? Try these video lessons and learn fast
                Kalayaan-Bamboo
by
SHC Lucena 
09283150081

Intro- Am efx(harmonic)


Verse-

|-5-5---------5-5------------5-5-------------5-5----------|
|-5-5---------5-5------------5-5-------------5-5----------|
|-5-5---------5-5------------5-5-------------5-5----------|
|-7-7---------7-7------------7-7-------------7-7----------|2x
|-7-7---------7-7------------7-7-------------7-7----------|
|-5-5---------5-5------------5-5-------------5-5----------|

Refrain-
|-5-x-5-x-5-x-5-x-5-x-5-x-5-x-5-x-5-x-5-x-5-x-5-x-5-x-5-x-|
|-5-x-5-x-5-x-5-x-5-x-5-x-5-x-5-x-5-x-5-x-5-x-5-x-5-x-5-x-|
|-5-x-5-x-5-x-5-x-5-x-5-x-5-x-5-x-5-x-5-x-5-x-5-x-5-x-5-x-|
|-7-x-7-x-7-x-7-x-7-x-7-x-7-x-7-x-7-x-7-x-7-x-7-x-7-x-7-x-|
|-7-x-7-x-7-x-7-x-7-x-7-x-7-x-7-x-7-x-7-x-7-x-7-x-7-x-7-x-|
|-5-x-5-x-5-x-5-x-5-x-5-x-5-x-5-x-5-x-5-x-5-x-5-x-5-x-5-x-|

Pre-chorus
|-----------------------------------|
|-----------------------------------|
|-----------------------------------|
|-----------------------------------|
|-2-2-2-2-2-2-2-2--6-6-6-6-6-6-6-6--|
|-0-0-0-0-0-0-0-0--4-4-4-4-4-4-4-4--| 
or
|-----------------------------------|
|-----------------------------------|
|-9-9-9-9-9-9-9-9--1313131313131313-|
|-9-9-9-9-9-9-9-9--1313131313131313-|
|-7-7-7-7-7-7-7-7--1111111111111111-|
|-----------------------------------|

Chorus
|---------------------------------------------------------|
|---------------------------------------------------------|
|---------------------------------------------------------|
|------------5-5--5---------------------9-9-9-9-9-9-9-9-9-|2x
|-7-7-7-7-7--3-3--3-2-3-4-5--5-5-5-5-5--7-7-7-7-7-7-7-7-7-|
|-5-5-5-5-5---------0-1-2-3--3-3-3-3-3--------------------|

Post-chorus
|---------------------------------------------------------|
|---------------------------------------------------------|
|---------------------------------------------------------|
|-7~-10~-9~-3~--7~-10~-9~-3~--7~-10~-9~-3~--7~-10~-9~-3~--|2x
|---------------------------------------------------------|
|---------------------------------------------------------|

Do verse to pre-chorus

Chorus
|---------------------------------------------------------|   -----------|
|---------------------------------------------------------|   -----------|
|---------------------------------------------------------|   -----------|
|------------5-5--5---------------------9-9-9-9-9-9-9-9-9-|2x -9-9-9-9-9-|
|-7-7-7-7-7--3-3--3-2-3-4-5--5-5-5-5-5--7-7-7-7-7-7-7-7-7-|   -7-7-7-7-7-|
|-5-5-5-5-5---------0-1-2-3--3-3-3-3-3--------------------|   -----------|

do Chorus


|---------------------------------------------------------|
|---------------------------------------------------------|
|---------------------------------------------------------|
|-7~-10~-9~-3~--7~-10~-9~-3~--7~-10~-9~-3~--7~-10~-9~-3~--|
|---------------------------------------------------------|
|---------------------------------------------------------|

|-----------------------------------------|
|-(10)-(13)-(12)-(6)-(10)-(13)-(12)-(6)---|
|-----------------------------------------|
|--7~---10~--9~---3~--7~---10~--9~---3~---|
|-----------------------------------------|
|-----------------------------------------|

|-5-5-5-5-5-5-5-5-5-5-5-5-5-5-5-5-5-5-5-5-5-5-5-5-5-5-5-5-|
|-5-5-5-5-5-5-5-5-5-5-5-5-5-5-5-5-5-5-5-5-5-5-5-5-5-5-5-5-|
|-5-5-5-5-5-5-5-5-5-5-5-5-5-5-5-5-5-5-5-5-5-5-5-5-5-5-5-5-|
|-7-7-7-7-7-7-7-7-7-7-7-7-7-7-7-7-7-7-7-7-7-7-7-7-7-7-7-7-|continued...
|-7-7-7-7-7-7-7-7-7-7-7-7-7-7-7-7-7-7-7-7-7-7-7-7-7-7-7-7-|
|-5-5-5-5-5-5-5-5-5-5-5-5-5-5-5-5-5-5-5-5-5-5-5-5-5-5-5-5-|

..end with Am

Verse-
Laid out and beat down
A modern classic
Here's the countdown
I tried to warn you of the dangers
But y'all just laugh out loud
Haha we're all just dying for the same dream
I pose the question
You answer shhh they may be following me

So I'll take you deep cover son
Recognizing the difficulty in this everyday situation
Only been here two days already asking for the pay day
Here we go back to pre-school 1-2-3 abc


Refrain-
Pwede bang malaman kung san patungo ang daang ito
Pwede ba, puwede ba

pre-chorus
Sa gitna ng gulo

At ngayon tilay' malapit na ang kalayaan
Sa kuko na dala ang dilim eh bakit ako na'aaning
Tuwing humihiywa ang damdamin... ng salinlahi ko
Iisa ang tunog sa pulso at yapak ng kapwa ko siraulo

post-chorus
If you could only see
Right in front of me
I'll try to find
You a better view
Don't hold me back
I got my orders
I ain't waiting for the rush
Send in the next track

verse-
A chance to free my soul
A chance to free my soul
A chance to free my soul
Sure as the sun sets and rises
The story never gets old

So it's out of my hands now
The future's looking mighty and bright
How got people talking bout the rules of the game
Spark the change
Enjoy the rest of your mother! @#$%^* day
            
Submit corrections

comments powered by Disqus
↑ Back to top | Bamboo Tabs for Kalayaan. Lyrics for acoustic guitar and electric guitar. Tablatures and chords are parodies/interpretations of the original songs. You may use it for private study, scholarship, research or language learning purposes only