» » »

Bamboo, Kailan Tabs (ver.3)

Artists:  A B C D E F G H I J K L M N O P Q R S T U V W X Y Z # 

Kailan Tabs (ver.3)

Bamboo Tabs
 Rating:
4/5 (7 votes)
Kailan lessons Tabs too difficult? Try these video lessons and learn fast
                
                just listen carefully to
                the song... send me a message
                if there is something u want
                to ask bout this tab.. GoOd LuCk..^_^

Tuning: Standard

Legend:  v = (Strumming going up)
         / = Slide
         p = pull off
         ^ = vend up
         h = hammer
Intro:

    A        E            G        D
E|-----------------------------------------------|
B|-----------------------------------------------|
G|-----------9-9v-9v-9-9-----------7-7v-7v-7-7---|
D|--7--7v-7--9-9v-9v-9-9--5--5v-5--7-7v-7v-7-7---|
A|--7--7v-7--7-7v-7v-7-7--5--5v-5--5-5v-5v-5-5---|
E|--5--5v-5---------------3--3v-5----------------|

Verse:

    A           CM7         A           CM7
E|-------5-----------3-----------5-----------3------|
B|-----5---5-------5---5-------5---5-------5---5----|
G|--6--------6--4--------4--6--------6--4--------4--|(2x)
D|--7-----------5-----------7-----------5-----------|
A|--7-----------3-----------7-----------3-----------|
E|--5-----------------------5-----------------------|

    A           CM7         A          CM7     D
E|-------------------------------------------------|
B|-------------------------------------------------|
G|--6-----------4-----------6----------4-------5---|
D|--7-----------5-----------7----------5-------5---|
A|--7-----------3-----------7----------3-------3---|
E|--5-----------------------5----------------------|

Chorus:

    A    E                   G    D
E|----------------------------------------------------|
B|----------------------------------------------------|
G|-------9-9v-9v-9v-9v-9-9v-------7-7v-7v-7v-7v-7-7v--|(4x)
D|--7-7--9-9v-9v-9v-9v-9-9v--5-5--7-7v-7v-7v-7v-7-7v--|
A|--7-7--7-7v-7v-7v-7v-7-7v--5-5--5-5v-5v-5v-5v-5-5v--|
E|--5-5----------------------3-3----------------------|

Solo:

E|-----------------------------------------8/10------|
B|-----------------------------------7--8--------10--|
G|--4/6----4----------4/6---4--5--7------------------|
D|------7----5------------7--------------------------|
A|-------------7-5-3---------------------------------|
E|---------------------------------------------------|

(Repeat Verse)
(Repeat Chorus)
 
Adlib:(this part is a little bit faster)
                                                
E|------------------------------7-10-9-------------------|
B|---------------------5-7-8-10--------10-8-7-7h8p7/5-5--|
G|-----------------6-7-----------------------------------|
D|------4-5--4/5-7---------------------------------------|
A|--5/7--------------------------------------------------|
E|-------------------------------------------------------|

E|------5----------------------------------------------------|
B|--7-8---7--------------------------------------------------|
G|----------7^-5/7----------------------------------6/7-6-7--|
D|-----------------7-4----------------------4/5-4-5----------|
A|---------------------7-5-5h7p5-4--4/5-4-5------------------|
E|-----------------------------------------------------------|

E|----------8/10-9------------------------------------|
B|--7/8-7-8--------10-8-7-------8-10^-8-10-8----------|
G|------------------------7-6/7--------------9-7-9-9--|
D|----------------------------------------------------|
A|----------------------------------------------------|
E|----------------------------------------------------|

E|--12^-12-|     |--16^--10-9--------8/10--10/12--|
B|---------|     |------------13-12---------------|
G|---------|(12x)|--------------------------------|
D|---------|     |--------------------------------|
A|---------|     |--------------------------------|
E|---------|     |--------------------------------|

    A     E     G     D
E|--------------------------|
B|--------------------------|
G|--------9-----------7-----|(6x)
D|--7-----9-----5-----7-----|
A|--7-----7-----5-----5-----|
E|--5-----------3-----------|

Chorus:

    A    E                   G    D
E|----------------------------------------------------|
B|----------------------------------------------------|
G|-------9-9v-9v-9v-9v-9-9v-------7-7v-7v-7v-7v-7-7v--|(7x)
D|--7-7--9-9v-9v-9v-9v-9-9v--5-5--7-7v-7v-7v-7v-7-7v--|
A|--7-7--7-7v-7v-7v-7v-7-7v--5-5--5-5v-5v-5v-5v-5-5v--|
E|--5-5----------------------3-3----------------------|

    A    E                   G    D           A
E|------------------------------------------------|
B|------------------------------------------------|
G|-------9-9v-9v-9v-9v-9-9v-------7--7--7--7--6---|
D|--7-7--9-9v-9v-9v-9v-9-9v--5-5--7--7--7--7--7---|
A|--7-7--7-7v-7v-7v-7v-7-7v--5-5--5--5--5--5--7---|
E|--5-5----------------------3-3--------------5---|


Bago ang lahat isipin mo kung nasa tama ka ,
Baka magkamali ka pa doon.
At bago mo ayusin ang mga bagay sa paligid mo,
Unahin mo kaya sarili mo

Kailan? kailan ko gagawin kundi ngayon
Tao po nananawagan lang naman ako
Saan? kailangan nating simulan
Tao po nangangailangan lang ng tulong nyo

Nais kong mabuhay ng mabuti’t marangal
Nagsisimba nagdarasal ako , tuwing linggo
Sapat na ba kayang itong sagot sa pan*langin na
Maging pantay at patag ang mundo

Kailan? kailan ko gagawin kundi ngayon
Tao po nananawagan lang naman ako
Saan? kailangan nating simulan
Tao po nangangailangan lang ng tulong nyo

Kailangan bang ulitin pang muli
Sa awit na sinabi noon
Kailan ba kaya ako malaya sa gulo
Ilang awit pa ba ang kailangan tugtugin ng
bandang to

Kailan? kailan ko gagawin kundi ngayon
Tao po nananawagan lang naman ako
Saan? kailangan nating simulan
Tao po nangangailangan lang ng tulong nyo

Kailan? kailan ko gagawin kundi ngayon
Tao po nananawagan lang naman ako
Saan? kailangan nating simulan
Tao po nangangailangan lang ng tulong.
            
Submit corrections

comments powered by Disqus
↑ Back to top | Bamboo Tabs for Kailan. Lyrics for acoustic guitar and electric guitar. Tablatures and chords are parodies/interpretations of the original songs. You may use it for private study, scholarship, research or language learning purposes only