» » »

Bamboo, Kailan Tabs (ver.1)

Artists:  A B C D E F G H I J K L M N O P Q R S T U V W X Y Z # 

Kailan Tabs (ver.1)

Bamboo Tabs
 Rating:
4/5 (6 votes)
Kailan lessons Tabs too difficult? Try these video lessons and learn fast
                Bamboo - Kailan
brought to you by:
Francis J.Q.S.
Lucena City SHC(BSN)
09283150081

x-mute note
~-let ring/Vibrato
h-hammer
p-pull off
/-slide
^-bend
+-harmonic



Intro- A E G D 4x
|-------------------------------------------|
|-------------------------------------------|
|-------------------------------------------|
|---------9-9999~--------------7-7777~------|
|-7~-xxx--7-7777~----5~-xxx----5-5555~------|
|-5~-xxx-------------3~-xxx-----------------|
Verse-DM7-CM7

|-----5-------------------3-----------------|
|-7~---7-----------5~------5----------------|
|-6~---------------4~-----------------------|4X
|-7~---------------5~-----------------------|
|-5~---------------3~-----------------------|
|-------------------------------------------|

mhhhm...
|-------------------------------------------|   -------|
|-7~---------------5~-----------------------|   ---7---|
|-6~---------------4~-----------------------|2x ---6---|
|-7~---------------5~-----------------------|   ---7---|
|-5~---------------3~-----------------------|   ---5---|
|-------------------------------------------|   -------|

CHORUS- A E G D 4x
|-------------------------------------------|
|-------------------------------------------|
|-------------------------------------------|
|---------9-9999~--------------7-7777~------|4x
|-7~-xxx--7-7777~----5~-xxx----5-5555~------|
|-5~-xxx-------------3~-xxx-----------------|

Interlude1-
|---------------------------------------------------------------|
|--------------------------------------------------15-----------|
|-/6-----------------------6/----------------11-12-----14~------|
|----7~--/9-5-----------------7~---/9-10-12---------------------|
|-------------7-5-3~--------------------------------------------|
|---------------------------------------------------------------|


REPEAT vERSE AND CHORUS
solo- A E D 2x 
      A E D /C# /C /B D E

solo-
2:20    
                                        
|--------------------------------------/10-9----------------------|
|----------------------------8---10-12---------10-8~--7h8p7-5~----|
|------------------------7-9--------------------------------------|
|----4h7----------7----9------------------------------------------|
|---7------7-9-10-------------------------------------------------|
|--5--------------------------------------------------------------|
2:22
|-----------------------------------------------------------|
|-7-8-/10--7~-----------------------------------------------|
|-------------7-4-6^r(7)------------------------------------|
|------------------------7-4--------------------------------|
|-----------------------------7-5--5h7/5/4-4~---------------|
|-----------------------------------------------------------|

2:31
|----------------------------------/10-9-------------------|
|---------------------------8-7-8--------10p7--------------|
|------------------/7-6-7----------------------6-6^r(7)----|
|-----------5-4-5------------------------------------------|
|--/5-4-5--------------------------------------------------|
|----------------------------------------------------------|

|--------------------------------|
|-----8h10-10^r-8h10-8-----------|
|-/9-------------------9p7-9~-99-|
|--------------------------------|
|--------------------------------|
|--------------------------------|

09283150081

|-12-12-12-12-12-12-12-12-12-12-12-12-12-12-12-12-12-12-12-12-12-12-12-12-|
|-15^---15^---15^---15^---15^---15^---15^---15^---15^---15^---15^---15^---|
|-------------------------------------------------------------------------|
|-------------------------------------------------------------------------|
|-------------------------------------------------------------------------|
|-------------------------------------------------------------------------|

|-15^(17)-------------------------------------------------------|
|---------15-14-13-12~------15~-17~~----------------------------|
|---------------------------------------------------------------|
|---------------------------------------------------------------|
|---------------------------------------------------------------|
|---------------------------------------------------------------|

bridge-

Drumbeats
Gtr(low to high volume)
|---------------------------------------------------------------|
|---------------------------------------------------------------|
|---------------------------------------------------------------|
|--5+~----------------------------------------------------------|
|---------------------------------------------------------------|
|---------------------------------------------------------------|

|---------------------------------------------------------------|
|---------------------------------------------------------------|
|--5+~~~~~~~~~~~~~~~~~~~~~~~~~~~~~~~~---------------------------|
|---------------------------------------------------------------|
|---------------------------------------------------------------|
|---------------------------------------------------------------|

CHORUS- A E G D 4x
|-------------------------------------------|
|-------------------------------------------|
|-------------------------------------------|8x
|---------9-9999~--------------7-7777~------|
|-7~-xxx--7-7777~----5~-xxx----5-5555~------|
|-5~-xxx-------------3~-xxx-----------------|

end with
|------------------------------------|
|------------------------------------|
|------------------------------------|
|--7-7-7-7---------------------------|
|--5-5-5-5-77777777777777777777777~--|
|----------55555555555555555555555~--|
=
PAra sa mga reklamo at suhestyon 
itxt lang ireng numero sa baba..
09283150081


lYRICS-
Bago ang lahat isipin mo kung nasa tama ka ,
Baka magkamali ka pa doon.
At bago mo ayusin ang mga bagay sa paligid mo,
Unahin mo kaya sarili mo

Kailan? kailan ko gagawin kundi ngayon
Tao po nananawagan lang naman ako
Saan? kailangan nating simulan
Tao po nangangailangan lang ng tulong nyo

Nais kong mabuhay ng mabuti’t marangal
Nagsisimba nagdarasal ako , tuwing linggo
Sapat na ba kayang itong sagot sa pan*langin na
Maging pantay at patag ang mundo

Kailan? kailan ko gagawin kundi ngayon
Tao po nananawagan lang naman ako
Saan? kailangan nating simulan
Tao po nangangailangan lang ng tulong nyo

Kailangan bang ulitin pang muli
Sa awit na sinabi noon
Kailan ba kaya ako malaya sa gulo
Ilang awit pa ba ang kailangan tugtugin ng
bandang to

Kailan? kailan ko gagawin kundi ngayon
Tao po nananawagan lang naman ako
Saan? kailangan nating simulan
Tao po nangangailangan lang ng tulong nyo

Kailan? kailan ko gagawin kundi ngayon
Tao po nananawagan lang naman ako
Saan? kailangan nating simulan
Tao po nangangailangan lang ng tulong nyo
            
Submit corrections

comments powered by Disqus
↑ Back to top | Bamboo Tabs for Kailan. Lyrics for acoustic guitar and electric guitar. Tablatures and chords are parodies/interpretations of the original songs. You may use it for private study, scholarship, research or language learning purposes only