» » »

Bamboo, F.U Tabs (ver.2)

Artists:  A B C D E F G H I J K L M N O P Q R S T U V W X Y Z # 

F.U Tabs (ver.2)

Bamboo Tabs
 Rating:
4/5 (4 votes)
F.U lessons Tabs too difficult? Try these video lessons and learn fast
1
                Tabbeb by: Rovie Delos Santos


INTRO:
     Em     B     F            Em     B     F                       
|-----0-----2-----1-----| |-----0-----2-----1-----|
|-----0-----2-----1-----| |-----0-----4-----1-----|
|-----0-----4-----2-----| |-----0-----4-----2-----| x2
|-----2-----4-----3-----| |-----2-----4-----3-----|
|-----2-----2-----3-----| |-----2-----2-----3-----|                         
|-----0-----------1-----| |-----0-----------1-----|
                           (single strum lng 2 ^)

VERSE 1:

Em-B-F-Em (light strum lng s mga verses)

Why do you hate him
Why did you make him leave
There's nothing wrong with him

Em-B-F-Em

Why do you hate him
you want him crucified
Is it the way he looks
or the way he speaks his mind

CHORUS:

|-----3-----1-----|
|-----3-----1-----|
|-----3-----2-----| x6
|-----5-----3-----|
|-----5-----3-----|
|-----3-----1-----|

Never hear this song playing on the radio\
                                          \
Ohh... there's nothing wrong with him      \ x2 (kakantahin bka d nyo alm)
But it's you and your friends              /
                                          /
Never hear this song playing on the radio/

INTRO

VERSE 2:

Em B F Em

All you ever did was talk about her
She's done what she had to do
Having to raise two kids without a father

Em B F Em

You just stood by idly watched her suffer
You think you're something special
Boy you blew it! This conversation's over...

CHORUS

Bgo mag SOLO pla i2 (Em B Em B F)

SOLO:
|-------------------------------------------------------|
|-------5--3--3h5-5--3--3--5--7--5----------------------|
|-7--5--------------------------------------------------|
|-------------------------------------------------------|
|-------------------------------------------------------|
|-------------------------------------------------------|      
                                                                      

|---------------------------------------------------------------|
|-------5/--3/--3--5--7--5--3--5--7--5--3--5--7--5--3--5--7--5--|
|-7/--5/--------------------------------------------------------|
|---------------------------------------------------------------|
|---------------------------------------------------------------|
|---------------------------------------------------------------|


CHORUS(x5) (hanggang s mtapos)
END
            
Submit corrections

comments powered by Disqus
↑ Back to top | Bamboo Tabs for F.U. Lyrics for acoustic guitar and electric guitar. 1 Tablatures and chords are parodies/interpretations of the original songs. You may use it for private study, scholarship, research or language learning purposes only