» » »

Bamboo, F.U Tabs (ver.1)

Artists:  A B C D E F G H I J K L M N O P Q R S T U V W X Y Z # 

F.U Tabs (ver.1)

Bamboo Tabs
 Rating:
4/5 (4 votes)
F.U lessons Tabs too difficult? Try these video lessons and learn fast
                e2 tab ko ng f.u


intro:

|--------------------------------------------------|
|--------------------------------------------------|
|--------------------------------------------------| X2
|---2----------------------------------------------|
|---2--2222222-----------------5-------------------|
|---0----------1111111--0-2-3----------------------|



verse 1
(light strumming lng po....)
why do you hate him...
|---------------------------------------|
|---------------------------------------|
|------4--------------------------------|
|---2--4--3-----------------------------|
|---2--2--3--------5--------------------|
|---0-----1--0-2-3----------------------|

or the way he speaks his mind...
|-------|
|-------|
|-5-----|
|-5-----|
|-3-----|
|-------|

never hear this song on the radio!!!!  ( distorsion na )
|-------------------------|
|-------------------------|
|---7---------------------|( palm muted down stokes )
|---7----3----------------|
|---5----3----------------|
|--------1----------------|

(chorus)

ooohh...there's nothing wrong with him!!!...
|---------------------------------|
|---------------------------------|
|----5--7-------------------------|
|----5--7--3----------------------|
|----3--5--3----------------------|
|----------1----------------------|

never hear this song on the radio!!!!  ( distorsion  )
|-------------------------|
|-------------------------|
|---7---------------------|
|---7----3----------------|
|---5----3----------------|
|--------1----------------|



(tas intro ulet) pero isang beses lng
|--------------------------------------------------|
|--------------------------------------------------|
|--------------------------------------------------| 
|---2----------------------------------------------|
|---2--2222222-----------------5-------------------|
|---0----------1111111--0-2-3----------------------|


verse 2

all you ever did was talk about her...
|---------------------------------------|
|---------------------------------------|
|------4--------------------------------|
|---2--4--3-----------------------------|
|---2--2--3--------5--------------------|
|---0-----1--0-2-3----------------------|


boy you blew it this conversations over...
|-------|
|-------|
|-5-----|
|-5-----|
|-3-----|
|-------|



never hear this song on the radio!!!!  ( distorsion na )
|-------------------------|
|-------------------------|
|---7---------------------|( palm muted down stokes )
|---7----3----------------|
|---5----3----------------|
|--------1----------------|




(chorus)

ooohh...there's nothing wrong with him!!!...
|---------------------------------|
|---------------------------------|
|----5--7-------------------------|
|----5--7--3----------------------|
|----3--5--3----------------------|
|----------1----------------------|

never hear this song on the radio!!!!  ( distorsion  )
|-------------------------|
|-------------------------|
|---7---------------------|
|---7----3----------------|
|---5----3----------------|
|--------1----------------|


adlib:
|----------------------------------------------------------|
|----------------------------------------------------------|
|---------------9------------7----------5h7--5--7--7h9--7--|
|--2------------9------------7----5h7-5--------------------|
|--2--7--5--10--7--7--9-10---5-----------------------------|
|--0-------------------------------------------------------|


|-------------------------------------|
|-------------------------------------|
|-----------------7------5h7-5--------|
|-----------------7------------5h7-5--|
|----3--5--7------5-------------------|
|-------------3-----------------------|

|-----------------------------------------------------------------|
|-----------------------------------------------------------------|
|-----------------------------------------------------------------|
|------------------------------------------------------33333------|
|--------------3--5--7-----------------3--5---7--------33333------|
|--5--7--8--1-----------3--5--7--8--1------------3--1--11111------|




(chorus)X2

ooohh...there's nothing wrong with him!!!...
|---------------------------------|
|---------------------------------|
|----5--7-------------------------|
|----5--7--3----------------------|
|----3--5--3----------------------|
|----------1----------------------|



never hear this song on the radio!!!!  ( distorsion  )
|-------------------------|
|-------------------------|
|---7---------------------|
|---7----3----------------|
|---5----3----------------|
|--------1----------------|

ayos ba? pki rate
            
Submit corrections

comments powered by Disqus
↑ Back to top | Bamboo Tabs for F.U. Lyrics for acoustic guitar and electric guitar. Tablatures and chords are parodies/interpretations of the original songs. You may use it for private study, scholarship, research or language learning purposes only