» » »

Bad Religion, Shattered Faith Tabs (ver.3)

Artists:  A B C D E F G H I J K L M N O P Q R S T U V W X Y Z # 

Shattered Faith Tabs (ver.3)

Bad Religion Tabs
 Rating:
4/5 (4 votes)
Shattered Faith lessons Tabs too difficult? Try these video lessons and learn fast
                Bad Religion - Shattered Faith

Intro-Fig. A

Guitar 1
E|----------------------------------|
B|----------------------------------|
G|----------------------------------|
D|-10-9-7*--9-10-9-7*-9-5*-9-10-5*--|
A|-x--x-x*--x-x--x-x*-x-x*-x-x--x*--|
E|-8--7-5*--7-8--7-5*-7-3*-7-8--3*--|

Guitar 2
E|---------------------------------|
B|---------------------------------|
G|-7-----3-----------5-------------|
D|-7-x8--3-x8--3-x8--5-x8----------|
A|-5-----1-----3-----3-------------|
E|-------------1-------------------|

Fig. B

Guitars 1 + 2
E|-----------
B|-----------
G|-----------
D|--7-------- Both guitars
A|--7-------- repeatedly strum
E|--5-------- while palm muting

Verse rhythm - Fig. C             	  Fig. D

E|---------------------------------------|-----------------|
B|---------------------------------------|-----------------|
G|-7-7-7-7-33---------55-----------------|-----------------|
D|-7-7-7-7-33-3-3-3-3-55-----------------|-----------------|
A|-5-5-5-5-11-3-3-3-3-33-----------------|-55331100-2-3-33-|
E|------------1-1-1-1--------------------|---------1-------|

E|---------------------------------------|
B|---------------------------------------|
G|-7-7---7-33---------55-----------------|<--That's the variation
D|-7-7---7-33-3-3---3-55-----------------|on the rhythm that both
A|-5-5---5-11-3-3---3-33-----------------|guitars play during the
E|------------1-1---1--------------------|verse.

Guitar 1 does Fig. C one time,
then both guitars do it twice together
(with the variation on the rhythm)
followed by Fig. D once

Chorus - Fig. A + Fig. B

The chorus is the intro twice.
Then it goes back to the verse = Fig. C + Fig. D

Then back to the Chorus = Fig. A + Fig. B

Interlude/Bridge

Fig. E

Guitar 1
E|---------------------------------|
B|---------------------------------|
G|-7--7--7--7--7--7--7--7----------|
D|-7--7--7--7--7--7--7--7----------|
A|-5--5--5--5--5--5--5--5----------|
E|---------------------------------|

Guitar 2
Fig. C, but palm muted.

when the vocals come in, both guitars do Fig. C
listen to the song for proper palm muting.

for the next part, just strum the verse chords
one at a time.

go straight into the chorus = Fig. A
until the song fades out.
            
Submit corrections

comments powered by Disqus
↑ Back to top | Bad Religion Tabs for Shattered Faith. Lyrics for acoustic guitar and electric guitar. Tablatures and chords are parodies/interpretations of the original songs. You may use it for private study, scholarship, research or language learning purposes only